Oops, an error
Loading. Please wait.

Draincleaner Hallucinations - Meaningful Song Tab

90 views 1 this week
no commentswrite comment
1 2 3 4 5
please rate
add to favorites
launch autoscroll
font size
0
reset
how to read this tab
guitar tuner
Tab Pro tools
  • play this tab
  • loop segment
  • change instrument
  • show fretboard
  • metronome
×
Best way to learn
"Draincleaner Hallucinations - Meaningful Song"
Autoscroll
slow
fast
+/-
esc
set tempo
stop
Contributor
Difficulty
novice
----------------------------------------------------------------------------
                   Meaningful Song - Draincleaner Hallucinations
----------------------------------------------------------------------------
Tabbed by: ihp1089
Email: ihp1989@yahoo.com

Tuning: Standard

Rhythm Guitar only
Intro riff 1:

e|--------------------------------|
B|--------------------------------|
G|--------------------------------|
D|--------------------------------|
A|-555-------555------------------|
E|-----3h5p3-----530-2p0-2p0------|

palm mute the first time after the bass does something similar at the beginning. Then 
it twice unpalm muted. Dont do the hammer-ons and pulloffs when you are palm muting.

intro Part 2: same as intro 1 but with chords
e|------------------------------|
B|------------------------------|
G|-555-----555------------------|
D|-555-575-555-752-32-32--------| x 4
A|-333-575-333-752-32-32--------|
E|-----353-----530-10-10--------|

Verse
e|----------------------------------|
B|----------------------------------|
G|-55555555-------------------------|
D|-555555557775-555222222223335-555-| x4
A|-333333337775-555222222223335-555-|
E|---------5553-333000000001113-333-|

Chorus
e|------------------------------------------------------------------|
B|------------------------------------------------------------------|
G|-5-5-5552-22-222--------------5-5-5552-22-222---------------------|
D|-5-5-5552-22-2222-23-35-55-55-5-5-5552-22-222-5555555555555555----| x2
A|-3-3-3330-00-0002-23-35-55-55-3-3-3330-00-000-5555555555555555----|
E|----------------0-01-13-33-33-----------------3333333333333333----|
                  <-------------------------------------------------| do not let ring

Outro:
e|-------|
B|-------|
G|--5----|  hit erratically. should sound messy.
D|--5----|
A|--3----|
E|-------|

Order:

Intro 1
Intro 2
Verse
Chorus
Intro riff 1 (palm muted x2)
Verse
Chorus
Intro riff 1 x 2
Verse
Intro part 2 x 2
Chorus
Outro

their website:
myspace.com/dchallucinations

| /  slide up
| \  slide down
| h  hammer-on
| p  pull-off
| ~  vibrato
| +  harmonic
| x  Mute note
comments
We did not receive enough feedback on this tab! Please rate:
print report bad tab
1 2 3 4 5
I want to post or [tab]
guest
You may want to rate the tab now too:
select rating
Please do not post tabs as comments. Select "correction" instead!