Oops, an error
Loading. Please wait.

Draincleaner Hallucinations - Ussr Bass Tab

82 views 1 this week
no commentswrite comment
1 2 3 4 5
please rate
add to favorites
launch autoscroll
font size
0
reset
guitar tuner
Autoscroll
slow
fast
+/-
esc
set tempo
stop
Help us to improve Ultimate-Guitar.com Take our survey!
×
Author
Difficulty
Bassist: Anderson H.


**To hear the song go to -  www.myspace.com/dchallucinations


Intro
G|:-------------------------------:| x4
D|:-------------------------------:|
A|:-------------------------------:|
E|:-12-12-12--10-10-8-8-8-7-7-7---:|

5th part of the Intro
G|--------------------------------| 
D|--------------------------------|
A|----------12-12-10-10-10-8-8-8--|
E|-12-12-12-----------------------|

Last Intro
G|-------------------------------| x1 
D|-------------------------------|
A|-------------------------------|
E|-12-12-12--10-10-8-8-8-7-7-7---|


Fill (in between Intro and Verse)
G|-------------------------| x1 
D|-----6-6-9-9-7-7---------|
A|-9-9-------------9-9-7---|
E|-------------------------|

Verse
G|:----------------------10--8-------------:|  x4  
D|:---------------------------10--8--------:|        
A|:-2-2-2-2-2-2-2-2\-7-8------------10-7/--:|
E|:----------------------------------------:|

Into the Chorus
G|-------------------------|
D|-3-3-3-5-5-5-7-7-7-9-9-9-|
A|-------------------------|
E|-------------------------|

Chorus
G|-------------------------------------------------|
D|-------------------------------------------------|
A|-9-9-9-9-9-9-------------9-9-9-9-9-9-------------|
E|-------------9-9-9-9-9-9-------------9-9-9-9-9-9-|

G|----------------------------------------------------------------| x1
D|----------------------------------------------------------------|
A|----------------------------------------------------------------|
E|-9-9-9-9-9-9--10-10-10-10-10-10--9-9-9-9-9-9--10-10-10-10-10-10-|


intro                  \
5th part of the Intro   } All together equal the intro
Last Intro             /
Suggest correction
Give kudos to tab author, rate the tab!
1 2 3 4 5
comments
print report bad tab
guest
You may want to rate the tab now too:
select rating
Please do not post tabs as comments. Select "correction" instead!