Oops, an error
Loading. Please wait.

Drained Apocalypse - Impendent Sorrow Bass Tab

27 views 1 this week
no commentswrite comment
1 2 3 4 5
please rate
add to favorites
launch autoscroll
font size
0
reset
guitar tuner
Tab Pro tools
  • play this tab
  • loop segment
  • change instrument
  • show fretboard
  • metronome
Autoscroll
slow
fast
+/-
esc
set tempo
stop
Contributor
Difficulty
Tuning
novice
C G C F A D
Drained Apocalypse
        -
Impendent Sorrow
       Bass

Verse

|---------------------------|\
|---------------------------| \ 5x
|---------------------------| /
|--3--0-0-0-0-0--6--5--0----|/

Chorus

|------------------------------------|\
|------------------------------------| \ 2x
|--3-3333333-3-5----------5-55-3-33--| /
|----------------777777-7------------|/

|-----------------------|
|-----------------------|
|--3-3333333-3-5--------|
|----------------5\-----|

Repeat Verse.

Repeat Chorus.

Break down
|------------------------------------------------------------|
|------------------------------------------------------------|
|------------------------------------------------------------|
|-00000000000000000000000000000< -Repeat it alot with a pick-|

|----------------------------------|
|----------------------------------|
|----------------------------------|
|--9\(slowly but not too slow)-----|

Repeat Chorus while the solo is playing.

After that don't play the official Chorus, 
play the Chorus + Outro mixed into it below here.

Chorus+Outro
|------------------------------------|\
|------------------------------------| \ 2x
|--3-3333333-3-5----------5-55-3-33--| /
|----------------777777-7------------|/

|-------------------------------------------------|
|-------------------------------------------------|
|--3-3333333-3-5----------------------------------|
|----------------12\(slowly but not too slow)-----|

comments
We did not receive enough feedback on this tab! Please rate:
print report bad tab
1 2 3 4 5
I want to post or [tab]
guest
You may want to rate the tab now too:
select rating
Please do not post tabs as comments. Select "correction" instead!