Oops, an error
Loading. Please wait.

Drained Apocalypse - Impendent Sorrow Tab

38 views 1 this week
no commentswrite comment
1 2 3 4 5
please rate
add to favorites
launch autoscroll
font size
0
reset
how to read this tab
guitar tuner
Autoscroll
slow
fast
+/-
esc
set tempo
stop
Help us to improve Ultimate-Guitar.com Take our survey!
×
Author
Difficulty
Tuning
novice
C G C F A D
Drained Apocalypse
        -
Impendent Sorrow

Intro (With Bass off)
|------------------------------------------------------------------------------------------|
|------------------------------------------------------------------------------------------|
|------------------------------------------------------------------------------------------| 
|--------2-00-3-2---------2-00-3-5-3------2-00-3--2---------2-00-3-5-7-5< - Mute the 5 fast| 
|---3-00----------3--3-00------------3-00-----------3--3-00--------------------------------|  
|------------------------------------------------------------------------------------------| 


||||| GO! |||||


Verse (With Bass on)
|---------------------------------------------------------------------|\
|---------------------------------------------------------------------| \
|------2-00-3-2---------2-00-3-5-3-------2-00-3-2--------2-00-3-5-7-5-|  \ 5x
|-3-00-2-00-3-2-3--3-00-2-00-3-5-3--3-00-2-00-3-2--------2-00-3-5-7-5-|  /
|-3-00----------3--3-00-------------3-00---------3--3-00--------------| /
|---------------------------------------------------------------------|/


Chorus
Guitar 1
|---------------------------------------------|\
|---------------------------------------------| \
|--333333333333-3-5----------7--77--5--55-----|  \ 2x
|--333333333333-3-5-77777777-7--77--5--55-----|  /
|--111111111111-1-3-77777777-5--55--3--33-----| /
|-------------------77777777------------------|/


Guitar 2
|----------------------------------------------------------|
|----------------------------------------------------------|
|-------------------------------------------8--8-8-7--7-7--|
|--10101010101010101010101010-12---88888888----------------|
|----------------------------------------------------------|
|----------------------------------------------------------|


Guitar 1
|---------------------------------|
|---------------------------------|
|--333333333333-3-5---------------|
|--333333333333-3-5-0~~~~[Whammy]-|
|--111111111111-1-3-0~~~~[  Bar ]-|
|-------------------0~~~~[ Down ]-|


Guitar 2
|------------------------------------------------------|
|------------------------------------------------------|
|------------------------------------------------------|
|--10101010101010101010101010-12-8~~~~[Whammy Bar Down]|
|------------------------------------------------------|
|------------------------------------------------------|

Repeat Verse.

Repeat Chorus.

Break Down
|------------------------------------------------------|
|------------------------------------------------------|
|------------------------------------------------------|
|-0000000000000000000000000000000000000000000-[Repeat]-|
|-0000000000000000000000000000000000000000000-[  It  ]-|
|-0000000000000000000000000000000000000000000-[ Alot ]-|
 \            Palm         Mute              /

Solo:

This will be put on later.

In this part you'll have to repeat the Chorus but don't repeat the official Chorus, 
the chorus below here within' the outro.

|---------------------------------------------|\
|---------------------------------------------| \
|--333333333333-3-5----------7--77--5--55-----|  \ 2x
|--333333333333-3-5-77777777-7--77--5--55-----|  /
|--111111111111-1-3-77777777-5--55--3--33-----| /
|-------------------77777777------------------|/


Guitar 2
|----------------------------------------------------------|
|----------------------------------------------------------|
|-------------------------------------------8--8-8-7--7-7--|
|--10101010101010101010101010-12---88888888----------------|
|----------------------------------------------------------|
|----------------------------------------------------------|


Outro
|-----------------------|
|-----------------------|
|--333333333333-3-5-----|
|--333333333333-3-5-12\-|
|--111111111111-1-3-12\-|
|-------------------12\-|


Suggest correction
Give kudos to tab author, rate the tab!
1 2 3 4 5
comments
print report bad tab
guest
You may want to rate the tab now too:
select rating
Please do not post tabs as comments. Select "correction" instead!