Oops, an error
Loading. Please wait.

Dreadnot - 2012 Tab

755 views 1 this week
no commentswrite comment
1 2 3 4 5
2 more votes to show rating
add to favorites
launch autoscroll
font size
0
reset
how to read this tab
guitar tuner
Autoscroll
slow
fast
+/-
esc
set tempo
stop
Help us to improve Ultimate-Guitar.com Take our survey!
×
Author
Difficulty
novice
Tabbed by Raul
This is my first tab, so there may be some mistakes. I did only rhytm guitar part, not 
all parts, only those that i understood (strumming parts). Sorry my english is bad.
If you dont like it, then tab yourself!

http://www.youtube.com/watch?v=012UlEi_0uo

Downstrumm and palm muting.

Part 1

1:20 - 2:18

E|---------------------------------------|
B|-8--8--8-------------------------------|
G|-9--9--9-------------------------------|
D|-9--9--9--12--12--12--7--7--7--9--9--9-|
A|-7--7--7--10--10--10--5--5--5--7--7--7-|
E|-x--x--x--8---8---8---3--3--3--5--5--5-| 4X

2:18 - 2:34

E|------------------------|
B|-8--8--8--8-------------|
G|-9--9--9--9--6--6--6--6-|
D|-9--9--9--9--8--8--8--8-|
A|-7--7--7--7--8--8--8--8-|
E|-x--x--x--x--6--6--6--6-| 4X

Part 2 is hard to understand, so this isn't correct.

Part 2

2:36 - 2:59

Again palm muting.
E|-------------------------------------|
B|-------------------------------------|
G|-------------------------------------|
D|------2--2--2--2--2s7-2--2--2--2--2s7|
A|------2--2--2--2--2s7-2--2--2--2--2s7|
E|-6s0---------------------------------| 4X

Chords: Em, Fm, Cm (3rd fret), Dm (5th fret)

2:59 - 3:10

Em Em Em Em Fm 3X Em Fm Em Fm Em

3:10 - 4:19

Try to look at the video, Chords are Em, Fm, Cm (3rd fret), Dm (5th fret)

Justus
Suggest correction
Give kudos to tab author, rate the tab!
1 2 3 4 5
comments
print report bad tab
guest
You may want to rate the tab now too:
select rating
Wanna post a correction for this tab? Suggest correction