Oops, an error
Loading. Please wait.

Dreadnot - Go Tell It To The Mountains Tab

526 views 1 this week
no commentswrite comment
1 2 3 4 5
3 more votes to show rating
add to favorites
launch autoscroll
font size
0
reset
how to read this tab
guitar tuner
Autoscroll
slow
fast
+/-
esc
set tempo
stop
Help us to improve Ultimate-Guitar.com Take our survey!
×
Author
Both Guitars
E---------------------------------------------------------------------------|
B---------------------------------------------------------------------------|
G--------------------7--5--4---------7--5--4---------7--5--4----------------|
D--555555555555555------------5-5555---------7-77777----------55555555555---|
A---------------------------------------------------------------------------|
E---------------------------------------------------------------------------|

Both Guitars 3x
E-----------------------------------------------------------------|
B-----------------------------------------------------------------|
G--7--5--4-----------7--5--4----------7--5--4--5------------------|
D-----------5-55555-----------7-77777-------------55555555555-----|
A-----------------------------------------------------------------|
E-----------------------------------------------------------------|
                                                  .  .  .  .
Guitar I
E------------------|
B------------------|
G------------------|
D--2----------2----|
A--2----------2----|
E--0----------0----|


Guitar II 4x
E---------------------------0-------|
B--7----8-----7-----7---8-------7---|
G-----9---9-9---9-9---9---9---9-----|
D-----------------------------------|
A-----------------------------------|
E-----------------------------------|


Both Guitars
E--------------------------------------------------------------------|
B--------------------------------------------------------------------|
G-------------------------------------5-5--5-5--55555555--5-5--5-5---|
D-2-2--2-2------------2-2--2-2--------5-5--5-5--55555555--5-5--5-5---|
A-2-2--2-2------------2-2--2-2--------3-3--3-3--33333333--3-3--3-3---|
E-0-0--0-0--00000000--0-0--0-0--0000---------------------------------|
            ........            ....            ........
Suggest correction
Give kudos to tab author, rate the tab!
1 2 3 4 5
comments
print report bad tab
guest
You may want to rate the tab now too:
select rating
Wanna post a correction for this tab? Suggest correction