Oops, an error
Loading. Please wait.

Drew Mathews - Untitled Tab

77 views 1 this week
no commentswrite comment
1 2 3 4 5
please rate
add to favorites
launch autoscroll
font size
0
reset
how to read this tab
guitar tuner
Tab Pro tools
  • play this tab
  • loop segment
  • change instrument
  • show fretboard
  • metronome
×
Best way to learn
"Drew Mathews - Untitled"
Autoscroll
slow
fast
+/-
esc
set tempo
stop
Contributor
~ = palm mute
* = pinch harmonic
h = hammer on
p = pull off
^ = bend up
_ = let ring

intro
---------------------------------------------------------|
---------------------------------------------------------|
---------------------------------------------------------|
---------------------------------------------------------|
-8--7--5---7--5--3---6--5--3---5--3--1--0----------------|
-8--7--5---7--5--3---6--5--3---5--3--1--0----------------|
~~~~~~~~~~~~~~~~~~~~~~~~~~~~~~~~~~~~~~~~~

1st riff
---------------------------------------------------------}
---------------------------------------------------------}
---------------------------------------------------------}
---------------------------------------------------------}
-0--4--7--0--4--7--6--4--7--6--4-------------------------}
-0--4--7--0--4--7--6--4--7--6--4-------------------------}
~~~~~~~~~~~~~~~~~                                        }  x2
                                                         }
---------------------------------------------------------}
---------------------------------------------------------}
---------------------------------------------------------}
---------------------------------------------------------}
-0--4--7--0--4--7--8--7--10--7--8------------------------}
-0--4--7--0--4--7--8--7--10--7--8------------------------}
~~~~~~~~~~~~~~~~~

2nd riff
---------------------------------------------------------|
---------------------------------------------------------|
---------------------------------------------------------|
---------------------------------------------------------|
------4-7-4-7-------4-7-4-7--2--6------------------------|
-0-0-----------0-0---------------------------------------|
 ~~~           ~~~              *

---------------------------------------------------------|
---------------------------------------------------------|
---------------------------------------------------------|
------------------------------666-444-777-6__-4___-------|
------4-7-4-7-------4-7-4-7---666-444-777-6__-4___-------|
-0-0-----------0-0------------666-444-777-6__-4___-------|
 ~~~           ~~~

3rd riff
---------------------------------------------------------}
---------------------------------------------------------}
---------------------------------------------------------}
---------------------------------------------------------}
-----6-----4-----7-----6-----4h6p4-----------------------}
-00----00----00----00----00------------------------------}
 ~~    ~~    ~~    ~~    ~~                              }  x4
                                                         }
---------------------------------------------------------}
---------------------------------------------------------}
---------------------------------------------------------}
-----------------------3---------------------------------}
-----6-----5-----3-----------5-----6---------------------}
-00----00----00----00----00----00------------------------}
 ~~    ~~    ~~    ~~    ~~    ~~

4th riff
---------------------------------------------------------}
---------------------------------------------------------}
---------------------------------------------------------}  x4
----------------4----------------------------------------}
-----7-5-4--------6-7------5-7-5-7------7-5--------------}
-00---------00---------00-----------00------7-6----------}
 ~~         ~~         ~~           ~~

5th riff
---------------------------------------------------------}
---------------------------------------------------------}
---------------------------------------------------------}  x2
---------------------------------------------------------}
-6--4--7--6--7--4--7--6--4--7--6--7--4--7----------------}
-6--4--7-----7-----7--6--4--7-----7-----7----------------}


outro
---------------------------------------------------------|
-12-------------10-12-13-12-10----10---------------------|
-12--10----10-13----------------13-----------------------|
-------13------------------------------------------------|
---------------------------------------------------------|
---------------------------------------------------------|
 ^^

---------------------------------------------------------|
-9-10h12p10----------------------------------------------|
-------------9-10h12p10----------------------------------|
-------------------------12--10--------------------------|
---------------------------------------------------------|
---------------------------------------------------------|


---------------------------------------8-9-11-12---------|
----------------------------------8-9--------------------|
--------------------------8-9-11-------------------------|
--------------------9-10---------------------------------|
------------8-9-11---------------------------------------|
-8-9-11-12-----------------------------------------------|


---------------------------------------------------------|
---------------------------------------------------------|
-7-5---5-------------------------------------------------|
-----7---7-5---5-----------------------------------------|
-------------7---7-5---5---------------------------------|
---------------------7---7-5-3-5-3-1-0-------------------|
comments
We did not receive enough feedback on this tab! Please rate:
print report bad tab
1 2 3 4 5
I want to post or [tab]
guest
You may want to rate the tab now too:
select rating
Please do not post tabs as comments. Select "correction" instead!