Oops, an error
Loading. Please wait.

Droideka - Get Hyper Tab

7,027 views 6 this week
no commentswrite comment
1 2 3 4 5
accurate
x 6
add to favorites
launch autoscroll
font size
0
reset
how to read this tab
guitar tuner
Autoscroll
slow
fast
+/-
esc
set tempo
stop
Help us to improve Ultimate-Guitar.com Take our survey!
×
Author
Difficulty
intermediate
There was no tab for this on UG or Songsterr, so i worked it out by ear, here it is for you guys:

standard tuning.
pretty easy to play
tabbed by Jake Fedarb


I couldn't get the high bit for the intro but this is the bass line for the whole song.

e|-------------------|
b|-------------------|
g|-------------------|
d|-------------------|
a|-22-22-55-55-77-77-|
E|-00-00-33-33-55-55-|

After intro:-
e|--------------------------|
b|--------------------------|
g|--------------------------| Repeat this
d|--------------------------| As many times
a|---2------------2------2--|
E|-00-3-00-22-3333-3-5555-3-|

GET HYPER.
e|---------------------------------|
b|---------------------------------|
g|---------------------------------|
d|---------------------------------|
a|-22-20-0-22------55-20-0-77-20---|
E|-00---3--00-2023-33---3--55---32-|

The bit after when both parts come together?

e|----------------------------------|
b|----------------------------------|
g|----------------------------------|
d|----4-----------------------------|
a|-22-2-55-5-44-5555-20-0-7777-20---|
E|-00---33-3-22-3333---3--5555---32-|

C: enjoy
Suggest correction
comments
print report bad tab
guest
You may want to rate the tab now too:
select rating
Wanna post a correction for this tab? Suggest correction