Oops, an error
Loading. Please wait.

Duckbomb - Aim Low Bass Tab

61 views 1 this week
no commentswrite comment
1 2 3 4 5
please rate
add to favorites
launch autoscroll
font size
0
reset
guitar tuner
Autoscroll
slow
fast
+/-
esc
set tempo
stop
Help us to improve Ultimate-Guitar.com Take our survey!
×
Author
Difficulty
novice
-------------------------------------------------------------------------------
			     Aim Low - Duckbomb
-------------------------------------------------------------------------------

Tabbed By : zach
e-mail: zombiedeth@hotmail.com

Tuning: standard

verse
G|-----------------------------------|
D|-----------------------------------|
A|----------7-9----------------------|
E|--999-999-----7-5-555-555-555-555--|

chorus
G|---------------------------------------------------------------------------|
D|---------------------------------------------------------------------------|
A|------------------------------555-555--------------------------------------|
E|--999-555--9-9-5-5--9999-5555----------------------------------------------|

bridge
G|---------------------------------------------------------------------------|
D|---------------------------------------------------------------------------|
A|--555-555-555-10-10-----------------555-555-555-10-10----------------------|
E|--------------------999-999-999-999-------------------999-999-9------------|

pre verse
G|---------------------------------------------------------------------------|
D|---------------------------------------------------------------------------|
A|-------7-9-----------------------------------------------------------------|
E|--REST-----7-5-555-555-555-555---------------------------------------------|

the one part A
G|---------------------------------------------------------------------------|
D|---------------------------------------------------------------------------|
A|----7---7-555-------7---7-555----------------------------------------------|
E|--9---9------555--9---9------555-------------------------------------------|

the one part B
G|---------------------------------------------------------------------------|
D|---------------------------------------------------------------------------|
A|--555-----555-----5-5-5----------------------------------------------------|
E|------555-----555-------5-5-5----------------------------------------------|

new bridge
G|---------------------------------------------------------------------------|
D|---------------------------------------------------------------------------|
A|--555-555-555-10-10---------7---7---7--555-555-555-10-10-------------------|
E|--------------------999-999---9---9---------------------999-999-999-999----|

ending (palm mute guitar for first half)
G|---------------------------------------------------------------------------|
D|---------------------------------------------------------------------------|
A|--555-555-555-10-10-----------------5-5-5-5-5-5-10-10----------------------|
E|--------------------999-999-999-999-------------------9--------------------|
verse 2
chorus 2
bridge 1
pre verse 1
verse 2
chorus 2
one part A 2
one part B 1
new bridge 1
ending 1
Suggest correction
What's this?
You can suggest a correction to this tab. Community and Mods will review your correction and vote to approve or reject it.
comments
We did not receive enough feedback on this tab! Please rate:
print report bad tab
1 2 3 4 5
guest
You may want to rate the tab now too:
select rating
Please do not post tabs as comments. Select "correction" instead!