Oops, an error
Loading. Please wait.

Dysfunction - The Beginning Tab

801 views 1 this week
9 commentsread comments
1 2 3 4 5
x 7
add to favorites
launch autoscroll
font size
0
reset
how to read this tab
guitar tuner
Autoscroll
slow
fast
+/-
esc
set tempo
stop
Help us to improve Ultimate-Guitar.com Take our survey!
×
Author
Difficulty
advanced
hey!
these are our tracks:
1:El Mexicano
2:Murdurous Children
3:Sweetness Of Hell
4:The Devil Has Risen
5:Boulevard Of The Big Apple





1:El Mexicano

verse
|----------|----------|----------|----------|
|----------|----------|----------|----------|
|-11111111-|-22222222-|-11111111-|-22222222-|
|-22222222-|-33333333-|-22222222-|-33333333-|
|-22222222-|-33333333-|-22222222-|-33333333-|
|----------|----------|----------|----------|

chorus
|-x-|-x-|-x-|-x-|-x-|-x-|
|-x-|-x-|-x-|-x-|-x-|-x-|
|-1-|-2-|-1-|-2-|-1-|-2-|
|-2-|-3-|-2-|-3-|-2-|-3-|
|-2-|-3-|-2-|-3-|-2-|-3-|
|-0-|-0-|-0-|-0-|-0-|-0-|
(strum each down down up up down up)

verse
|----------|----------|----------|----------|
|----------|----------|----------|----------|
|-11111111-|-22222222-|-11111111-|-22222222-|
|-22222222-|-33333333-|-22222222-|-33333333-|
|-22222222-|-33333333-|-22222222-|-33333333-|
|----------|----------|----------|----------|

chorus
|-x-|-x-|-x-|-x-|-x-|-x-|
|-x-|-x-|-x-|-x-|-x-|-x-|
|-1-|-2-|-1-|-2-|-1-|-2-|
|-2-|-3-|-2-|-3-|-2-|-3-|
|-2-|-3-|-2-|-3-|-2-|-3-|
|-0-|-0-|-0-|-0-|-0-|-0-|
(strum each down down up up down up)

solo:
|---------------|---2-x-x-x-2---|--------|
|---------------|-1---x-x-x---1-|--------|
|---------------|-----x-x-x-----|--------|
|---------------|-----x-x-x-----|-15/17~-|
|---2---4---2---|-----x-x-x-----|--------|
|-1---3---3---1-|-----x-x-x-----|--------|

****************************************************************************
2:Murdurous Children
intro
|--------------------------------------------------|
|--------------------------------------------------|
|--------------------------------------------------|
|--------------------------------------------------|
|-0-1-0-2-0-1-0-2-0-1-0-2-0-1-0-2-0-1-0-2-0-1-0-2~-|
|-0-1-0-2-0-1-0-2-0-1-0-2-0-1-0-2-0-1-0-2-0-1-0-2~-|

chorus
|-0~--0~-|
|-0~--1~-|
|-0~--2~-|
|-2~--3~-|
|-3~--0~-|
|-0~--0~-|

solo:
|-------------------------8-11--|
|--------------------8-11-------|
|---------------8-10------------|
|----------8-10-----------------|
|---6-8-10----------------------|
|-8-----------------------------|

|---------------------3-6--|
|-----------------3-6------|
|-------------3-5----------|
|---------3-5--------------|
|---1-3-5------------------|
|-3------------------------|

verse
|--------------------------------|
|--------------------------------|
|-7b9-7-5--------5---5-7-7b9-5---|
|---------7--5h7---7-----------7-|
|--------------------------------|
|--------------------------------|

|---------------------5-8-|
|-----------------5-8-----|
|-------------5-7---------|
|---------5-7-------------|
|---3-5-7-----------------|
|-5-----------------------|

Chorus
|-0~--0~-|
|-0~--1~-|
|-0~--2~-|
|-2~--3~-|
|-3~--0~-|
|-0~--0~-|

outro(solo)
|-14-15-16-17-16-15-14-15-16-17-18-16-17-18-19-17-18-19-20b------------|
|----------------------------------------------------------------------|
|----------------------------------------------------------------------|
|----------------------------------------------------------------------|
|----------------------------------------------------------------------|
|----------------------------------------------------------------------|

****************************************************************************
3:Sweetness of Hell(solo Included)
                                                              x4
|-------------------------------------------------------------------|
|-------------------------------------------------------------------|
|-------------------------------------------------------------------|
|-------------------------------------------------------------------|
|-2-2-2-2-2-2-2-2--4-4-4-4-4-4-4-4--6-6-6-6-6-6-6-6-6-6-6-6-6-6-6-6-|
|-0-0-0-0-0-0-0-0--2-2-2-2-2-2-2-2--4-4-4-4-4-4-4-4-4-4-4-4-4-4-4-4-|

|-------|-9b-----7-6-5--------|
|-------|----9-7-------5------|
|-------|----------------5----|
|-------|---------------------|
|-5~-3~-|---------------------|
|-3~-1~-|------------------0w-|
                                                                 x2
|-------------------------------------------------------------------|
|-------------------------------------------------------------------|
|-------------------------------------------------------------------|
|-------------------------------------------------------------------|
|-2-2-2-2-2-2-2-2--4-4-4-4-4-4-4-4--6-6-6-6-6-6-6-6-6-6-6-6-6-6-6-6-|
|-0-0-0-0-0-0-0-0--2-2-2-2-2-2-2-2--4-4-4-4-4-4-4-4-4-4-4-4-4-4-4-4-|
                                  
                                 x2
|-----------------------------------|
|-----------------------------------|
|-----------------------------------|
|-----------------------------------|
|-7h8p7-10~-7h8p7-10~-7h8p7-10~-12~-|
|-----------------------------------|

|-8---8-9~-8---8-9-~-10b-11b-12b-------------|
|---8--------8-------------------12b-11b-10b-|
|--------------------------------------------|
|--------------------------------------------|
|--------------------------------------------|
|--------------------------------------------|

|-2---2-3-4-3-2----2---2-3-4-3-2-|-2~-1~-0-|
|---2-----------2----------------|-2~-1~-0-|
|--------------------------------|---------|
|--------------------------------|---------|
|--------------------------------|---------|
|--------------------------------|---------|
                                                                                                         x4
|-12----12-13-14-13-12-16-16b-16-16b-------------------------------------------------|-18-16-----------------|
|----12------------------------------14-15-14-16-14-15-14-17-14-15-14-16-14-15-14-17-|-------18-16-----------|
|------------------------------------------------------------------------------------|-------------18-16-----|
|------------------------------------------------------------------------------------|-------------------18~-|
|------------------------------------------------------------------------------------|-----------------------|
|------------------------------------------------------------------------------------|-----------------------|
        x2
|----------|----------------------|-----|------------------------------|-20b-18b-16b-|
|-12-10/11-|-16-14-16-18-16-14-16-|-----|------------------------------|-------------|
|--0--0----|--0--0--0--0--0--0--0-|-----|----18-16-----18-16-----18-16-|-------------|
|----------|----------------------|-18~-|-18---------------------------|-------------|
|----------|----------------------|-----|------------------------------|-------------|
|----------|----------------------|-----|------------------------------|-------------|
                                x4
|-------------------------|-------|
|-------------------------|-------|
|-------------------------|-12-11-|
|-------------------------|--0--0-|
|-2--2-2--4--4-4--6--6-6--|-------|
|-0--0-0--2--2-2--4--4-4--|-------|   fades out on last part

****************************************************************************
4: The Devil Has Risen
intro                            x2
|----------------------------------|
|----------------------------------|
|----------------------------------|
|----------------------------------|
|----------------------------------|
|-00000000-1111-5555-3333-00000000-|
  ........ .... .... .... ........
                                  x3
|-------------------------------------|
|-------------------------------------|
|-------------------------------------|
|-------------------------------------|
|-00000000-88888888-55555555-77777777-|
|-00000000-88888888-55555555-77777777-|
  ........ ........ ........ ........

|-------------------------------------|
|-------------------------------------|
|-------------------------------------|
|-------------------------------------|
|-00000000-88888888-55555555-77777777-|
|-00000000-88888888-55555555-77777777-|

pre-verse
|---------|
|---------|
|---------|
|---------|
|-x-x-x-x-|
|-x-x-x-x-|

verse                             x3
|-------------------------------------|
|-------------------------------------|
|-------------------------------------|
|-------------------------------------|
|-66666666-44444444-66666666-77777777-|
|-66666666-44444444-66666666-77777777-|

chorus(sorry only 1 short song)
|-----------10-8-|
|-10-8-----------|
|------10-8------|
|----------------|
|-------(x5)-----|
|----------------|

verse                             x3
|-------------------------------------|
|-------------------------------------|
|-------------------------------------|
|-------------------------------------|
|-66666666-44444444-66666666-77777777-|
|-66666666-44444444-66666666-77777777-|

bridge
|---------------|
|---------------|
|---------------|
|---------------|
|-6-8-9-11~-12~-|
|-4-6-7--9~-10~-|

solo(really short)
|-------13-|
|----12----|
|-11-------|
|----------|
|----------|
|----------|

outro                           x2
|-------------------------------------|
|-------------------------------------|
|-------------------------------------|
|-------------------------------------|
|-------------------------------------|
|-00000000-1111-5555-3333-00000000-0~-|
****************************************************************************
5:Boulevard Of The Big Apple
|------------------------------------|------------------------------------------|
|------------------------------------|------------------------------------------|
|12-11--12-12-12-12-12-12/16-16-14-14|14-14-14-14-11-11-12-12-12-12-12-12-12-12-|
|-x--x---x--x--x--x--x--x--x--x--x--x|-x--x--x--x--x--x--x--x--x--x--x--x--x--x-|
|10--9--10-10-10-10-10-10/14-14-12-12|12-12-12-12--9--9-10-10-10-10-10-10-10-10-|
|------------------------------------|------------------------------------------|

|-------|---------------------------------------------|-------------------------|
|-------|---------------------------------------------|-------------------------|
|-12-12-|-9-9-9-9-11-11-12-12-12-12-12-12/16-16-14-14-|9-9-9-9-11-11-12-12-12-12|
|--x--x-|-x-x-x-x--x--x--x--x--x--x--x--x--x--x--x--x-|x-x-x-x--x--x--x--x--x--x|
|-10-10-|-7-7-7-7--9--9-10-10-10-10-10-10/14-14-12-12-|7-7-7-7--9--9-10-10-10-10|
|-------|---------------------------------------------|-------------------------|

|-------------------|-------------------------------------------------|----------|
|-------------------|-------------------------------------------------|----------|
|-12-12/16-16-14-14-|-14-14-14-14-11-11-12-12-12-12-12-12-12-12-12-12-|16-16-16--|
|--x--x--x--x--x--x-|--x--x--x--x--x--x--x--x--x--x--x--x--x--x--x--x-|-x--x--x--|
|-10-10/14-14-12-12-|-12-12-12-12--9--9-10-10-10-10-10-10-10-10-10-10-|14-14-14--|
|-------------------|-------------------------------------------------|----------|

|--------------------------------------------------------------------|
|--------------------------------------------------------------------|
|-16-16-16-16-16-16-16-16-16-16-16-16-16-16-16-16-16-16-16-16-16-16--|
|--x--x--x--x--x--x--x--x--x--x--x--x--x--x--x--x--x--x--x--x--x--x--|
|-14-14-14-14-14-14-14-14-14-14-14-14-14-14-14-14-14-14-14-14-14-14--|
|--------------------------------------------------------------------|

heres our latest album and our only nontribute album so far
Suggest correction
comments
print report bad tab
9 comments total. Showing first comments.
0 reply
I was here 113 Jul 15, 2006 10:34 PM

are u screamo?

0 reply
korn-nut 10 Dec 05, 2006 11:27 AM

this shit is advanced?

0 reply
Guitfiddli'n 10 Dec 23, 2006 11:43 AM

these songs suck ass

guest
You may want to rate the tab now too:
select rating
Wanna post a correction for this tab? Suggest correction