Oops, an error
Loading. Please wait.

Ed Helms - Stus Song The Hangover Chords

version 1
version 1

Whole song

217,289 views 72 this week
11 commentsread comments
1 2 3 4 5
excellent!
x 44
add to favorites
launch autoscroll
font size
0
reset
transpose
0
reset
simplify chords
display chords
guitar tuner
Autoscroll
slow
fast
+/-
esc
set tempo
stop
Help us to improve Ultimate-Guitar.com Take our survey!
×
Author
This is a guitar version of the song that Ed Helms' character Stu plays in the movie The Hangover.

requested intro:

e|-8---3---12---8---5-----3-5/8---3---12----8---5-----5-7-8-10---|
B|------------------6---------------------------6----------------|
G|---5---5--------5-------------5---5---------5------------------|
D|------------10-------------------------10----------------------|
A|---------------------------------------------------------------|
E|---------------------------------------------------------------|

/ slide up

Chords:
 C  Cmaj7  F    G   Am   Dm   Em   Cadd9
  
-0-  -0-  -1-  -3-  -0-  -1-  -0-   -0-
-1-  -0-  -1-  -3-  -1-  -3-  -0-   -3-
-0-  -0-  -2-  -0-  -2-  -2-  -0-   -0-
-2-  -2-  -3-  -0-  -2-  -0-  -2-   -2-
-3-  -3-  -3-  -2-  -0-  -0-  -2-   -3-
-0-  -0-  -1-  -3-  -0-  -0-  -0-   -0-

C              Cmaj7               F
What do tigers dream of, when they take a little tiger snooze?
        C                Cmaj7            F
Do they dream of mauling zebras, or Halle Berry in her catwoman suit?
G                    Am                                            
Don't you worry your pretty stripped head 
            F                              C
we're gonna get you back to Tyson and your cozy tiger bed.
    G                         Am             
And then we're gonna find our bestfriend Doug 
    F                           C
and then we're gonna give him a bestfriend hug.
G     Am        F            C
Doug, Doug, Oh, Doug Douggie Douggie Doug Doug.
    C            Dm          Em           F
But if he's been murdered by crystal meth tweakers, 
     F          G           C
well then we're shit out of luck.
Suggest correction
comments
print report bad tab
11 comments total. Showing first comments.
0 reply
DontShoot 10 wrote on June 27 2009, 01:00 am

Sounds pretty good, but can you add what was done in the beginning before he started the vocals?

0 reply
tr4vx 96 wrote on June 27 2009, 06:44 pm

Try this out. Submitting the update for the tab too.

e|-8---3---12---8---5-----3-5/8---3---12----8---5-----5-7-8-10--|
B|------------------6---------------------------6---------------|
G|---5---5--------5------------5---5---------5------------------|
D|-----------10-------------------------10----------------------|
A|--------------------------------------------------------------|
E|--------------------------------------------------------------|

/ slide up

-2 reply
noz3 329 wrote on July 15 2009, 11:26 pm

I recommend changing all those wierd C chords and just keep
them on the regular C chord... If that even makes sense..

guest
You may want to rate the tab now too:
select rating
Please do not post tabs as comments. Select "correction" instead!