Oops, an error
Loading. Please wait.

Eels Unarmed - 34 Bass Tab

10 views 1 this week
no commentswrite comment
1 2 3 4 5
3 more votes to show rating
add to favorites
launch autoscroll
font size
0
reset
guitar tuner
×
Best way to learn
"Eels Unarmed - 34"
Autoscroll
slow
fast
+/-
esc
set tempo
stop
Author
About this tab version
This is an original, just the chorus. Was this info helpful? Yes No
This is the chorus of an original song 
Tabbed By : Jonathan Benoit
e-mail: 

Tuning: Eb G# C# F#

F#|---------------------------------------------------------------|
C#|---------------------------------------------------------------|
G#|7-----7--7--------------7-----------------7--7--6--------------|
Eb|---0--------0--0--7--0-----0--0--7--0--0-----------------------|

F#|---------------------------------------------------------------|
C#|------------------4--6--7--6--4------------4-------------------|
G#|---------6-----------------------4.--6--7-----7--4.--4--4------|
Eb|4--4--4-----4--4-----------------------------------------------|

F#|---------------------------------------------------------------|
C#|---------------------------------------------------------------|
G#|0--0--4--0--0--7--0--0--2--------2--2--4--6--------------------|
Eb|---------------------------2--2--------------------------------|

F#|----------------------------------------------------------------------------|
C#|------------------------------------------6---------------------------------|
G#|7-----------------7-----6--------6-----------------6--------6--------6------|
Eb|---0--0--7--0--0-----0-----4--4-----4--4-----4--4-----4--4-----4--4-----4--9|

F#|----------9------------------8-----------------6---------------------|
C#|------11----11------------9-----9-----------7-----7------------------|
G#|---11-----------11-----9-----------9-----7-----------7---------------|
Eb|9-------------------7-----------------5-----------------7--7--7--7--0|
Suggest correction
Give kudos to tab author, rate the tab!
1 2 3 4 5
comments
print report bad tab
guest
You may want to rate the tab now too:
select rating
Wanna post a correction for this tab? Suggest correction