Oops, an error
Loading. Please wait.

Electromaniacs - I Miss You So Tab

3,866 views 9 this week
no commentswrite comment
1 2 3 4 5
please rate
add to favorites
launch autoscroll
font size
0
reset
how to read this tab
guitar tuner
Autoscroll
slow
fast
+/-
esc
set tempo
stop
Help us to improve Ultimate-Guitar.com Take our survey!
×
Author
Difficulty
intermediate
This is my own translation. Copyright violation is not intended. It's not perfect but 
a good start. Any comment please email me @abracadabra_kibitzer@yahoo.com

I Miss You So - Tabs

 By: The Electromaniacs


Riff 1
E----------------------------------3-1-----------------|
B-------6-5----------3-1-----------5-3--------5-3------|
G-------7-5----------4-2----1h2---------------5-4------|
D--4h5--------1h2------------------------2h3-----------|
A------------------------------------------------------|
E------------------------------------------------------|
Riff 2
E---------13-12--------10-8-----------15-13-----------------|
B---------15-13--------12-10----------17-15----------13-12--|
G--11h12---------8h9----------13h14------------------14-12--|
D---------------------------------------------11h12---------|
A-----------------------------------------------------------|
E-----------------------------------------------------------|
Solo
1
E--8--10--12--10--------------8----10/12--10--7-------------|
B----------------13---------8-------------------9-----------|
G-------------------12----9-----------------------9---------|
D-----------------------------------------------------------|
A-----------------------------------------------------------|
E-----------------------------------------------------------|
2
E---------------7---------8------8----------------------------|
B--9/10---9-10-----10-11-----11-----11---8-8------------------|
G---------------------------------------------- --------------|
D-------------------------------------------------------------|
A-------------------------------------------------------------|
E-------------------------------------------------------------|
3
E--8------------7-------8-----8--8--8----8---10--12---------|
B-----10--9--10---10---10-----10-9--8-----------------------|
G-----10----------------------------------------------------|
D-----------------------------------------------------------|
A-----------------------------------------------------------|
E-----------------------------------------------------------|
4
E--10----8--7--8--7-------7h8-------10------------------------|
B--7-----------------10---------------------------------------|
G--7----------------------------------------------------------|
D-------------------------------------------------------------|
A-------------------------------------------------------------|
E------------------------------------------- -----------------|
5
E--8--10--12--10-------------8---10/12---10--7--------------|
B----------------13---------8------------------9------------|
G-------------------12-----9---------------------9----------|
D-----------------------------------------------------------|
A-----------------------------------------------------------|
E-----------------------------------------------------------|
6
E-----------------7-----------8----8------------------------|
B--9/10---9--10-------10---11---11---11----8--8-------------|
G-----------------------------------------------------------|
D-----------------------------------------------------------|
A-----------------------------------------------------------|
E-----------------------------------------------------------|
7
E--8h10p8----------------7---------8--8--8--------------------|
B-------------10--9--10-----10-----10-9--8--------------------|
G-------------10-------------------- -------------------------|
D-------------------------------------------------------------|
A-------------------------------------------------------------|
E-------------------------------------------------------------|
8
E--8--10--12--10--8----12/13-------------7--7----8--10--8---|
B-----------------------------10-9-10----8--8---------------|
G-----------------------------------------------------------|
D-----------------------------------------------------------|
A-----------------------------------------------------------|
E-----------------------------------------------------------|
9
E-------------------------------3/5--3/5----------------------|
B-------------------------------3/5--3/5----------------------|
G-------------4-5--4-5---7------------------------------------|
D--7--6--7----------------------------------------------------|
A-------------------------------------------------------------|
E-------------------------------- ----------------------------|
10
E-------------------------------5\4\3-----------------------|
B-------------------------------5\4\3--------3--------------|
G-------------4-5--4-5---7-----------------5----5-----------|
D--7--6--7--------------------------------------------------|
A-----------------------------------------------------------|
E-----------------------------------------------------------|
11
E-----------------------------------------------------------------|
B-----------------------------------------------------------------|
G-----------4-5-5-----------7---6--6/7---5--5/4---4-5--5/7--------|
D--7--6--7---------7-6-5---5--7---------7-------5----------3/5-3--|
A-------------------------7------------8--------------------------|
E-----------------------------------------------------------------|
12
E-------------------------------------------------------------|
B--------5----------------------5----------------- -----------|
G--5--7----7--5------------5--7---7--5------------------------|
D---------------7--5------5-------------6---------------------|
A------------------------7----------------7-------------------|
E-------------------------------------------------------------|
13
E-----------------------------------------------------------|
B-----------------------------------------------------------|
G-------------4/5--5------5----------5--------------4-5-----|
D----6/7--6-7--------7/8----8--5-5-----5--5/7--6-7----------|
A--7--------------------------------------------------------|
E-----------------------------------------------------------|
14
E-------------------------------------------------------------|
B----------------5------5/6-----------------------------------|
G--5-5-5----5--7---7--5----------------4-4----5--7--5---------|
D--7-6-5-----------------------7-6-7---5-5--------------------|
A-------------------------------------------- ----------------|
E-------------------------------------------------------------|
15
E----8-------------------------------6----------------------|
B----8---11------------------------8-----------3/5--5\3-----|
G--9--------------------4-5---4-5-------8/9----3/5--5\3-----|
D----------------7-6-7--------------------------------------|
A-----------------------------------------------------------|
E-----------------------------------------------------------|
16
E--------------------------6--8-------3/5--5\3--------------|
B--------------------------8--9-------3/5--5\3--------------|
G-------------4-5---4-5-------------------------------------|
D-----7-6-7-------------------------------------------------|
A--8--------------------------------------------------------|
E-----------------------------------------------------------|
17
E-------------7-8----7-8----10------18-----15-12-10-----------|
B--10--9--10---------------------- ---------17-13-11----------|
G--10---------------------------------------------------------|
D-------------------------------------------------------------|
A-------------------------------------------------------------|
E-------------------------------------------------------------|
18
E--8------------7-8---7-8----10------12----15----12--10-----|
B----10--9--10-----------------------13----------13--11-----|
G----10-----------------------------------------------------|
D-----------------------------------------------------------|
A-----------------------------------------------------------|
E-----------------------------------------------------------|
19
E--8--------------7--8--8-------8--8--10----------------------|
B-----10--9--10---------------------------11--9--11--8--11----|
G-----10---------------------------------------------8--------|
D-------------------------------------------------------------|
A---------------------------- --------------------------------|
E-------------------------------------------------------------|
20
E-----------------------------13---10-----------------11\10\9--|
B--11--9---11---9---11-------11-------11--------8\7\6----------|
G------10-------10------------------------------8\7\6----------|
D--------------------------------------------------------------|
A--------------------------------------------------------------|
E--------------------------------------------------------------|
21
E--4---6h8---6-----------4---6--8--6--3------------3--4---4---4---------|
B--------------9-------4----------------5---6-5-6-------6---7---7---4-4-|
G----------------8---5--------------------5-----------------------------|
D-----------------------------------------------------------------------|
A-----------------------------------------------------------------------|
E-----------------------------------------------------------------------|
22
E--4h6----------3h4----4-4-4---4--6/8--6--5----8/9---------3-3--3h4/6-4-|
B-------6--5--6--------6-5-4---4--------------------6-5-6--4-4----------|
G-------6---------------------------------------------------------------|
D-----------------------------------------------------------------------|
A-----------------------------------------------------------------------|
E-----------------------------------------------------------------------|
23
E--------6-4-------11-9-------8-6------9--------9----------------------|
B--------8-6-------13-11------9-8------10-----10-----------------------|
G--4h5--------9h10--------5h6------7h8-------9-------------------------|
D----------------------------------------------------------------------|
A----------------------------------------------------------------------|
E----------------------------------------------------------------------|

End
Please comment for error and email me. Thanks.
Suggest correction
What's this?
You can suggest a correction to this tab. Community and Mods will review your correction and vote to approve or reject it.
comments
We did not receive enough feedback on this tab! Please rate:
print report bad tab
1 2 3 4 5
guest
You may want to rate the tab now too:
select rating
Please do not post tabs as comments. Select "correction" instead!