Oops, an error
Loading. Please wait.

Elkanah Groves - Intro Tab

7 views 1 this week
no commentswrite comment
1 2 3 4 5
3 more votes to show rating
add to favorites
launch autoscroll
font size
0
reset
how to read this tab
guitar tuner
Autoscroll
slow
fast
+/-
esc
set tempo
stop
Help us to improve Ultimate-Guitar.com Take our survey!
×
Author
Difficulty
Tuning
intermediate
C G C F A D
About this tab version
This tab was written by the band. Was this info helpful? Yes No
Tuning: Drop C 432hz
Key: E Minor
Time Signature: 4/4
Tempo:


[Intro Chords]

D|--0--0----4--4----0--0--0----0--0--0----0--0----4--4----0--0--0----0--0--0----0--|
A|--2--2----2--2----2--2--1----3--3--2----2--2----2--2----2--2--1----3--3--2----2--|
F|--2--2----0--0----2--2--2----2--2--2----2--2----0--0----2--2--2----2--2--2----2--|
C|--0--0----4--4----0--0--0----0--0--0----0--0----4--4----0--0--0----0--0--0----0--|
G|--0--0----4--4----0--0--0----X--X--X----0--0----4--4----0--0--0----X--X--X----0--|
C|--X--X----X--X----X--X--X----X--X--X----X--X----X--X----X--X--X----X--X--X----X--|


[Intro Lead]

D|--------12---------0---------------12----14--14----12--12------|
A|----12----------7----7---------12--------14--14----14--14------|
F|--14--14------11-11---11-----14--14------12--12----11--11------|
C|------------------------8--------------------------------------|
G|---------------------------------------------------------------|
C|---------------------------------------------------------------|


[Verse]

D|---------------------------------0h2p0----------------------|
A|--------5----------------------------------2h3p2------------|
F|----------4----------------------------2---------2----------|
C|------------7--------------------------------------0--------|
G|-----------------------------------------------------4------|
C|--4-4-4-------2-2-2-4-p2-h4-0-0-0--------0-------------4-4-4|

D|----------------------------------------------------|
A|-5--------------5-----------------------------------|
F|---4------------------------------------------------|
C|-----7----2h4/6-------------------------------------|
G|------------------------------------------------12--|
C|-------2p0--------0-0--0--0--11-11-11--11-11-11-11--|

D|---------------------------------0h2p0-----0h4h5h6p5p4-----------------------------------|
A|--------5---------------------------------------------5---------5--------------5---------|
F|----------4----------------------------2--------------------------4----------------------|
C|------------7-------------------------------------------------------7----2h4/6-----------|
G|---------------------------------------------------------------------------------0----2--|
C|--4-4-4-------2-2-2-4-p2-h4-0-0-0--------0--------------0h4-4-4-------2p0--------0----2--|


[Chorus]

D|-------------------------------------------------------12-----------4--------------------------------------|
A|------------------5-----------------------5----------9----9-----------5------------------------------------|
F|----------------4-----------2---------------4---------------------4----------------------------------------|
C|--------------7-----------6----6--------7----------9-------------------------------4-4-4-4-4/6-7-7-7-7-7-7-|
G|--0----2----------------2--------0----4------------12-------0---4-------0--0-0-0-0-2-2-2-2-2/4-5-5-5-5-5-5-|
C|--0----2----4-------0h2----------0----4-------0-------------0---4-------0--0-0-0-0-4-4-4-4-----------------|


[Verse 2]

D|---------------------------------0h2p0----------------------|
A|--------5----------------------------------2h3p2------------|
F|----------4----------------------------2---------2----------|
C|------------7--------------------------------------0--------|
G|-----------------------------------------------------4------|
C|--4-4-4-------2-2-2-4-p2-h4-0-0-0--------0-------------4-4-4|

D|----------------------------------------------------|
A|-5--------------5-----------------------------------|
F|---4------------------------------------------------|
C|-----7----2h4/6-------------------------------------|
G|------------------------------------------------12--|
C|-------2p0--------0-0--0--0--11-11-11--11-11-11-11--|

D|---------------------------------0h2p0-----0h4h5h6p5p4------------------------------|
A|--------5---------------------------------------------5---------5--------------5----|
F|----------4----------------------------2--------------------------4-----------------|
C|------------7-------------------------------------------------------7----2h4/6------|
G|---------------------------------------------------------------------------------0--|
C|--4-4-4-------2-2-2-4-p2-h4-0-0-0--------0--------------0h4-4-4-------2p0--------0--|

Final chord section in verse 2:

D|--9--9--9--9--9--9--9--9--9--9---|
A|--10-10-10-10-9--9--9--9--9--9---|
F|--9--9--9--9--9--9--9--9--9--9---|
C|--11-11-11-11-9--9--9--9--9--9---|
G|--9--9--9--9--12-12-12-12-12-12--|
C|---------------------------------|


[Bridge]

D|--------------------------------------------------------------------------------------------------------|
A|---------------------------------------------10---------------------------------------------------------|
F|---------------------------------------13-------13------------------------------------------------------|
C|--7-7-7-7-7-7-7-7-7-7-7-7-----------11----11-------11---7-7-7-7-7-7-7-7-7-7-7-7-----4---4---------------|
G|--5-5-5-4-4-4-5-5-5-4-4-4---------9-------------------0-5-5-5-4-4-4-5-5-5-4-4-4-----------7-5-4---------|
C|--------------5-5-5-4-4-4-0-0-0-0-----------------------------------5-5-5-4-4-4-5-5---5----------0-0-0--|

D|----------------------------------------------------------------------------------------------|
A|----------------------------------------------13----------------------------------------------|
F|----------------------------------------16-------16-------------------------------------------|
C|--7-7-7-7-7-7-7-7-7-7-7--------------14----14-------14---7-7-7-7-7-7-7-7-7-7-7-7-5-5-5-5-5-5--|
G|--5-5-5-4-4-4-5-5-5-4-4-----------12-------------------0-5-5-5-4-4-4-5-5-5-4-4-4-3-3-3-3-3-3--|
C|--------------5-5-5-4-4-0-0-0-0-0------------------------------------5-5-5-4-4-4-3-3-3-3-3-3--|

Final chord run in the Bridge:

D|------------------------------------------------|
A|------------------------------------------------|
F|------------------------------------------------|
C|--7-7-7-7-7-7-8-8-8-8-8-8-10-10-10-10-10-10-12--|
G|--3-3-3-3-3-3-5-5-5-5-5-5-8--8--8--8--8--8--10--|
C|--3-3-3-3-3-3-5-5-5-5-5-5-8--8--8--8--8--8--10--|


[Chorus]

D|-------------------------------------------------------12-----------4--------------------------------------|
A|------------------5-----------------------5----------9----9-----------5------------------------------------|
F|----------------4-----------2---------------4---------------------4----------------------------------------|
C|--------------7-----------6----6--------7----------9-------------------------------4-4-4-4-4/6-7-7-7-7-7-7-|
G|--0----2----------------2--------0----4------------12-------0---4-------0--0-0-0-0-2-2-2-2-2/4-5-5-5-5-5-5-|
C|--0----2----4-------0h2----------0----4-------0-------------0---4-------0--0-0-0-0-4-4-4-4-----------------|

************************************

| /  slide up
| \  slide down
| h  hammer-on
| p  pull-off
| ~  vibrato
| +  harmonic
| x  Mute note

************************************
Suggest correction
Give kudos to tab author, rate the tab!
1 2 3 4 5
comments
print report bad tab
guest
You may want to rate the tab now too:
select rating
Wanna post a correction for this tab? Suggest correction