Oops, an error
Loading. Please wait.

Elmobo - Planet Error Tab

25 views 1 this week
no commentswrite comment
1 2 3 4 5
3 more votes to show rating
add to favorites
launch autoscroll
font size
0
reset
how to read this tab
guitar tuner
Autoscroll
slow
fast
+/-
esc
set tempo
stop
Help us to improve Ultimate-Guitar.com Take our survey!
×
About this tab version
Double Kick Heroes is a video game. Was this info helpful? Yes No
Standard tuning, no capo
Heavy distorsion, palm mute some parts, make it sound nasty and unclean

[Intro] (x2)
e|----------------------------------------------|
B|----------------------------------------------|
G|--------------------------------3-----1-------|
D|--------3-----1--------------3-----------3--3-|
A|-----3----(3)----3--0--1----------------------|
E|--1-------------------------------------------|

e|----------------------------------------------|
B|----------------------------------------------|
G|--------------------------------3-----1-----1-|
D|--------3-----1--------------3-----------3----|
A|-----3----(3)----3--0--1----------------------|
E|--1-------------------------------------------|

[Chorus] (x2):
e|----------------------------------------------|
B|----------------------------------------------|
G|--------------------------------3-----1-------|
D|--------3-----1--------------3-----------3--3-|
A|-----3----(3)----3--0--1----------------------|
E|--1-------------------------------------------|

e|----------------------------------------------|
B|----------------------------------------------|
G|--------------------------------3-----1-----1-|
D|--------3-----1--------------3-----------3----|
A|-----3----(3)----3--0--1----------------------|
E|--1-------------------------------------------|

[Verse]
             |P.M.------->                         |P.M.--------|gt;
e|-----------------------------------------------------------------|
B|-----------------------------------------------------------------|
G|-----------------------------------------------------------------|
D|--5--4--2----------------5--7--9--5--4--5--4--2------------------|
A|--5--4--2--x-x-x-x-x-x-x-5--7--9--5--4--5--4--2--x-x-x-x-x-x-x---|
E|-----------x-x-x-x-x-x-x-------------------------x-x-x-x-x-x-x---|

             |P.M.------------------------------------------------|gt;
e|----------------------------------------------------------------|
B|----------------------------------------------------------------|
G|----------------------------------------------------------------|
D|----------------------------------------------------------------|
A|--5--7--2--x-x-x-x-x-x-x--5--7--9--999999-----------------------|
E|--3--5--0--x-x-x-x-x-x-x--3--5--7--777777-----------------------|

[Bridge] (x2)

e|--------------------------------------------------|
B|--------------------------------------------------|
G|--------------------------------------------------|
D|---------------------------1--0-------------------|
A|---------------0--1-----1--------1--0--------0----|
E|--0--0------0-----------------------------3-----0-|

e|--------------------------------------------------|
B|--------------------------------------------------|
G|--------------------------------------------------|
D|------------------------1--0----------------------|
A|------------0--1-----1--------1--0----------------|
E|---0--0--0------------------------------x---x---x-|

[Chorus] (x2)
[Verse]
[Bridge] (x2)



************************************

| (n)  Ghost note
| x    Dead note

************************************
Suggest correction
Give kudos to tab author, rate the tab!
1 2 3 4 5
comments
print report bad tab
guest
You may want to rate the tab now too:
select rating
Wanna post a correction for this tab? Suggest correction