Oops, an error
Loading. Please wait.

Evil I - Carty And Brown Tab

85 views 1 this week
no commentswrite comment
1 2 3 4 5
3 more votes to show rating
add to favorites
launch autoscroll
font size
0
reset
how to read this tab
guitar tuner
Autoscroll
slow
fast
+/-
esc
set tempo
stop
Help us to improve Ultimate-Guitar.com Take our survey!
×
-------------------------------------------------------------------------------
                             CARTY & BROWN - Evil i
-------------------------------------------------------------------------------
Tabbed by: Rhys
Email: rhys-hart@hotmail.co.uk

Tuning: Standard EADGBe

Intro - Guitar 1 (Clean w/delay)

e|---------6--------------------------6---------------------|
B|----8----------8--------------8-----------8---------------|
G|--0----0-----0----0--------8-----8-----8-----8------------| repeat
D|----------------------------------------------------------|
A|----------------------------------------------------------|
E|----------------------------------------------------------|

Guitar 2 (Distortion)

e|----------------------|
B|----------------------|
G|------3---------------|
D|---5--3--3--5---(x4)--|
A|---5--1--3--5---------|
E|---3-----1--3---------|

e|------------------------------------------------------------------------|
B|------------------------------------------------------------------------|
G|-----3-------------------3-------------------3--------------------------|
D|--5--3--3--5--x--5----5--3--3--5--x--5----5--3--3--5--x--5--x--5--5--5--|
A|--5--1--3--5--x--5----5--1--3--5--x--5----5--1--3--5--x--5--x--5--5--5--|
E|--3-----1--3--x--3----3-----1--3--x--3----3-----1--3--x--3--x--3--3--3--|

Chorus - Both Guitars (Distortion)

(These are the chords, listen to song for rhythm)
e|--------------------------------------|
B|--------------------------------------|
G|-----3--8--10-12--3-------------------|
D|--5--3--8--x---x--x-------(x4)--------|
A|--5--1--6--8--10--1-------------------|
E|--3-----------------------------------|

Verse - Guitar 1 (Distortion)

e|------------------------------------------------------------------|
B|------------------------------------------------------------------|
G|-------------------------------------12-10-10-10-10-/-12-12-------|
D|--5-5-5-5-10-8-8-8-8-12-10-10-10-10--12-10-10-10-10-/-12-12-(x4)--|
A|--5-5-5-5-10-8-8-8-8-12-10-10-10-10--10-8--8--8--8--/-10-10-------|
E|--3-3-3-3-8--6-6-6-6-10-8--8--8--8--------------------------------|

Guitar 2 (Distortion)

e|---------------------------------------------------|
B|---------------------------------------------------|
G|------7-----5------------------10-----7-5*---------|
D|--5-5---5-5---5/3~--/5~--/8--8----5-5--------(x3)--|
A|---------------------------------------------------|
E|---------------------------------------------------|

e|---------------------------------------------------|
B|---------------------------------------------------|
G|------7-----5------------------10---10---10\-------|
D|--5-5---5-5---5/3~--/5~--/8--8----8----8-----------|
A|---------------------------------------------------|
E|---------------------------------------------------|

CHORUS

Bridge - Guitar 1 uses Whammy Bar on harmonics

Guitar 2 (Distortion)

e|--------------------------------------------|
B|--------------------------------------------|
G|---------3----------3----------3-------12~--|
D|--5~---5-3-3-5~---5-3-3-5~---5-3-3-5~--12~--|
A|--5~---5-1-3-5~---5-1-3-5~---5-1-3-5~--10~--|
E|--3~---3---1-3~---3---1-3~---3---1-3~-------|

Then Guitar 1 Same as Intro (Clean w/delay)

e|---------6--------------------------6---------------------|
B|----8----------8--------------8-----------8---------------|
G|--0----0-----0----0--------8-----8-----8-----8------------| repeat
D|----------------------------------------------------------|
A|----------------------------------------------------------|
E|----------------------------------------------------------|

Guitar 2 (Distortion)

e|-------------------------------|
B|-------------------------------|
G|--10h12~~~---------------------|
D|----------------5555555555555--|
A|----------------5555555555555--|
E|----------------3333333333333--|
              PM  ............

CHORUS x 2

ENDING - Both Guitars (Distortion)

e|----------------|
B|----------------|
G|---------3------|
D|--5~---5-3-3-5--|
A|--5~---5-1-3-5--|
E|--3~---3---1-3--|


| /  slide up
| \  slide down
| h  hammer-on
| p  pull-off
| ~  vibrato
| +  harmonic
| x  Mute note
===============================================================================
Suggest correction
Give kudos to tab author, rate the tab!
1 2 3 4 5
comments
print report bad tab
guest
You may want to rate the tab now too:
select rating
Wanna post a correction for this tab? Suggest correction