Oops, an error
Loading. Please wait.

Evildog - Punk-O-Matic 1 Tab

777 views 1 this week
2 commentsread comments
1 2 3 4 5
please rate
add to favorites
launch autoscroll
font size
0
reset
how to read this tab
guitar tuner
Autoscroll
slow
fast
+/-
esc
set tempo
stop
Help us to improve Ultimate-Guitar.com Take our survey!
×
Contributor
Difficulty
novice
Ok, this is my first tab. And i have only started playing guitar since Christmas of '09.
if i get anything wrong, just hit me up at jam4u06@yahoo.com (i might not respond
because i have a bunch of junk in my mailbox). Btw, this is for the second guitar, or 
bottom guitar. You can check out the game at
(mods, if this is against TOS, than you can delete the link). And this is tabbed about 
and accuracy is about 97%.

Tabbed by:ToLatinKid
Email:jam4u06@yahoo.com

Tuning: Standard

0:
   M M M M M M M M M M M M M M M M M M M M M M M M M M M m m m
e|--------------------------------------------------------------------------|
B|--------------------------------------------------------------------------|
G|--------------------------------------------------------------------------|
D|-7-7-7-4-4-4-----------------4-4-7-7-7-4-4-4------------------------------|
A|-------------7-7-5-5-5-7-7-7-----------------7-7-5-5-5-4-4-4-5-4----------|
E|--------------------------------------------------------------------------|


1:

e|--------------------------------------------------------------------------|
B|--------------------------------------------------------------------------|
G|--------------------------------------------------------------------------|
D|--------------------------------------------------------------------------|
A|-9-9-9-7-7-7-5-5-7-7-7-9-9-9-9-9-5-5-5-5-5-5-8/9--7-7-7-7-7-7-7-7---------|
E|--------------------------------------------------------------------------|

2:

e|--------------------------------------------------------------------------|
B|--------------------------------------------------------------------------|
G|--------------------------------------------------------------------------|
D|--------------------------------------------------------------------------|
A|-9-9-9-9-9-9-9-9-10-10-10-9-9-9-7-7---------------------------------------|
E|--------------------------------------------------------------------------|

3:
   M M M M M M M M M M M m m m
e|--------------------------------------------------------------------------|
B|--------------------------------------------------------------------------|
G|--------------------------------------------------------------------------|
D|-9-9-9-7-7-7-5-5-4-4-4-5-5-5-4-4------------------------------------------|
A|--------------------------------------------------------------------------|
E|--------------------------------------------------------------------------|

4:

For some reason, i can't interpret the notes. So, if anyone has the tablature for the
part, please do send it with you user name and i will give credit for this.

5:
   M  M  M  M  M  M  M  M M  M   M   M   M   M   M   M   M  M
e|--------------------------------------------------------------------------|
B|--------------------------------------------------------------------------|
G|--------------------------------------------------------------------------|
D|--------------------------------------------------------------------------|
A|-9--9--9--9--9--9--9--9-9--12--12--12--12--12--12--12--12-12--------------|
E|--------------------------------------------------------------------------|

6:

e|--------------------------------------------------------------------------|
B|-7-5----------------------------------------------------------------------|
G|------7-7-6h7p6-----------------------------------------------------------|
D|---------------7-79--99---------------------------------------------------|
A|--------------------------------------------------------------------------|
E|--------------------------------------------------------------------------|

7:
          M M          MMMM
e|--------------------------------------------------------------------------|
B|--------------------------------------------------------------------------|
G|------------7p6-----------------------------------------------------------|
D|-7h9-9-99-9-----7--7-7777-------------------------------------------------|
A|--------------------------------------------------------------------------|
E|--------------------------------------------------------------------------|

8:

e|--------------------------------------------------------------------------|
B|--------------------------------------------------------------------------|
G|---------9-11-12-11-9-----------------------------------------------------|
D|-9-11-12--------------12--11--12--11--------------------------------------|
A|--------------------------------------------------------------------------|
E|--------------------------------------------------------------------------|

9:

For this, just scratch from the bridge up to 15 on the A string.

10:

For the last one, and the trickiest one (I warn you, it is not for the faint of heart.)
strike an open B note and let the *ucker ring!

************************************

| /   slide up
| \   slide down
| h   hammer-on
| p   pull-off
| M   Mute note
| m   Slightly muted note

************************************
comments
We did not receive enough feedback on this tab! Please rate:
print report bad tab
1 2 3 4 5
2 comments total.
0 reply
niyarbro789 12 wrote on November 24 2012, 08:05 am

This is the tab for #4 (99%):



Standard Tuning:

e|-----------------------------------------------------------|
B|-12-12-12-10-10-10-7-7-10-10-10-10-10-10-10-10-------------|
G|-11-11-11--9--9--9-7-7--6--6--6--7--7--7-/9--9-------------|
D|-----------------------------------------------------------|
A|-----------------------------------------------------------|
E|-----------------------------------------------------------|

0 reply
niyarbro789 12 wrote on November 24 2012, 08:14 am

THIS is the tab for #4. Use this one (100%):



Standard Tuning:

e|---------------------------------------------------------|
B|-12-12-12-10-10-10-10-10-10-10-10-10-10-10-10-10---------|
G|-11-11-11--9--9--9--7--7--6--6--6--7--7--7-/9--9---------|
D|---------------------------------------------------------|
A|---------------------------------------------------------|
E|---------------------------------------------------------|

I want to post or [tab]
guest
You may want to rate the tab now too:
select rating
Please do not post tabs as comments. Select "correction" instead!