Oops, an error
Loading. Please wait.

Evo - Terlalu Lelah Tab

2,975 views 3 this week
1 commentread comment
1 2 3 4 5
excellent!
x 3
add to favorites
launch autoscroll
font size
0
reset
how to read this tab
guitar tuner
Tab Pro tools
  • play this tab
  • loop segment
  • change instrument
  • show fretboard
  • metronome
×
Best way to learn
"Evo - Terlalu Lelah"
Autoscroll
slow
fast
+/-
esc
set tempo
stop
Contributor
Difficulty
intermediate
Song title   : Terlalu Lelah
Artist       : Evo

Please leave your comment quality.
and do not forget to click on a star rating.

Fig1
e|---------------------------------------------------------------------------|
B|--------2--4----------2--4-------------------------------------------------|
G|------4-------------4--------------1-----------1---------------------------|
D|--------------------------------------2-----------2------------------------|
A|--2-------------2----------------2-----------2-----------------------------|
E|------------------------------0-----------0--------------------------------|

Fig2
e|--7---6--------------------------------------------------------------------|
B|----------7----------------------------------------------------------------|
G|--------------8------------------------------------------------------------|
D|---------------------------------------------------------------------------|
A|---------------------------------------------------------------------------|
E|---------------------------------------------------------------------------|

Fig3
e|---------------------------------------------------------------------------|
B|---------------------------------------------------------------------------|
G|--6--8-8--8-8---8h9-8-6----8--9-9--9-9---8h9-8-6----6--8----6--------------|
D|------------------------9------------------------9-------9----6------------|
A|---------------------------------------------------------------------------|
E|---------------------------------------------------------------------------|

e|---------------------------------------------------------------------------|
B|------------------------7--9--11--12-12----11-12-9-12-7--------/12-11-12---|
G|--------6b8---------6-8----------------------------------9-8---------------|
D|--6-9-6-------9-6-9--------------------------------------------------------|
A|---------------------------------------------------------------------------|
E|---------------------------------------------------------------------------|

e|---------------------------------------------------------------------------|
B|--9-12-7-------------------------------------------------------------------|
G|----------6h7h8------------------------------------------------------------|
D|---------------------------------------------------------------------------|
A|---------------------------------------------------------------------------|
E|---------------------------------------------------------------------------|

e|---------------------------------------------------------------------------|
B|--------------------7--7-----------------7-6-----7-------------------------|
G|----------6-8p6---8----7-----6-8-------------9-8----8------6---------------|
D|--4h6-8-9-------9----------9-----6-9---6---------------8-9---8-4--4--------|
A|---------------------------------------------------------------------------|
E|---------------------------------------------------------------------------|

e|---------------------------------------------------------------------------|
B|-----------------------------7-----9-11--12--12----------------------------|
G|---------------------------6---/10-----------------------------------------|
D|--6h8---6----4-6-4---4-4---------------------------------------------------|
A|------9---8----------------------------------------------------------------|
E|---------------------------------------------------------------------------|



CHORD
==============================================================================

[Fig1]
B

B
Kala kutenggelam
          B
Ku tak berharap kau ada
        E
Untuk menemani
         E
Untuk memberi senyum
B
Terlalu lelah

[Fig2]
       B
Sekian waktu berlalu
          B
Tak mampu membuatku
        E
Takut kehilangan
          E
Tak ingin ku menipu
        B
Batinku dan batinmu
   B
Terlalu lelah


B
Kala kebosanan melanda
E
Di dinding hati
G#m                 F#
Saat itu kulepas dirimu

         B
Maafkan aku bila selama ini
    E
Kubagi cintamu dengan dia
G#m       F#             E
Seseorang yang mampu meluluhkanku


B
Hujan tlah berhenti
        B
Selamat datang kau pelangi
      E
Ini hanya sepenggal kisah
          E
Tentangmu tentangku dan dirinya
   B
Takkan terlupa
  B
Seperti biasa


B
Kala kebosanan melanda
E
Di dinding hati
G#m                 F#
Saat itu kulepas dirimu

         B
Maafkan aku bila selama ini
    E
Kubagi cintamu dengan dia
G#m       F#             E
Seseorang yang mampu meluluhkanku


[Fig3]
G#m A C#m E
B     E   Em
B  E  G#m F#


         B
Maafkan aku bila selama ini
    E
Kubagi cintamu dengan dia
G#m       F#             E
Seseorang yang mampu meluluhkanku

B
Kala kebosanan melanda
E
Di dinding hati
G#m                 F#
Saat itu kulepas dirimu

         B
Maafkan aku bila selama ini
    E
Kubagi cintamu dengan dia
G#m       F#             E
Seseorang yang mampu meluluhkanku

B

That is all...
If you have some correction or you need some help...contact me.
comments
We did not receive enough feedback on this tab! Please rate:
print report bad tab
1 2 3 4 5
1 comment total.
0 reply
fanri wrote on November 20 2013, 04:33 pm

yang versi guitar pro donk om,,

I want to post or [tab]
guest
You may want to rate the tab now too:
select rating
Please do not post tabs as comments. Select "correction" instead!