Oops, an error
Loading. Please wait.

Ex-Yu-Rokeri - 100Normalno Part 2 Tab

91 views 3 this week
no commentswrite comment
1 2 3 4 5
please rate
add to favorites
launch autoscroll
font size
0
reset
how to read this tab
guitar tuner
Autoscroll
slow
fast
+/-
esc
set tempo
stop
Help us to improve Ultimate-Guitar.com Take our survey!
×
Author
Band: Ex-yu-rokeri
Album: 100%Normalno
Done By: Ex-yu-rokeri
E-Mail:
www.Ultimate-Guitar.Com
www.ex-yu-rokeri.tk

------------------------------------------------------------------------------------------------
1. 100%Normalno Pt.2
------------------------------------------------------------------------------------------------

Intro

--------------------------|I
--------------------------|I
--------------------------|I
---2---2--2--4--4--1------|I
--------------------------|I
--------------------------|I

Verse 1

Guitar 1/2
-------------------------I---------------------------------|I
-------------------------I---------------------------------|I
-------------------------I---------------------------------|I
---2---2--2--4--4--1-----I---2---2--2--4--4--1-----I   X12-|
-------------------------I---------------------------------|I
-------------------------I---------------------------------|I

Guitar 3
------------------------------------------------------------------|
------------------------------------------------------------------|
------------------------------------------------------------------|
----------------------------------5-5-5-5-5-5-5-5-5-5-5-5-5-5-5-5-|
-4-4-4-4-4-4-4-4-4-4-4-4-4-4-4-4----------------------------------|    X12
------------------------------------------------------------------|

Interlure Guitar 1
------------------------------------------|
-----------------------5--5--5--7--7--4---|
----2--2--2--4--4--1---5--5--5--7--7--4---|
----2--2--2--4--4--1---5--5--5--7--7--4---|   X2
----2--2--2--4--4--1----------------------|
------------------------------------------|

Guitar 2
------------------------------------------|
----5--5--5--7--7--4----------------------|
----5--5--5--7--7--4---2--2--2--4--4--1---|
----5--5--5--7--7--4---2--2--2--4--4--1---|   X2
-----------------------2--2--2--4--4--1---|
------------------------------------------|

Repeat Verse 1 X8

Repeat X2

Pre-Chorus

Guitar 1
--------------------------------------------------------------|
--------------------------------------------------------------|
---2------2-----4---1-------------2------2-----4---1----------|
---2------2-----4---1-------------2------2-----4---1----------|
---2------2-----4---1-------------2------2-----4---1----------|
--------------------------------------------------------------|

Guitar 2
--------------------------------------------------------------|
--------------------------------------------------------------|
------2-----4------1-----------------2-----4------1-----------|
------2-----4------1-----------------2-----4------1-----------|
------2-----4------1-----------------2-----4------1-----------|
--------------------------------------------------------------|

Guitar 3
--------------------------------------------------------------------------------|
--------------------------------------------------------------------------------|
--------------------------------------------------------------------------------|
-------------------------------------5-5-5-5-5-5-5-5-5-5-5-5-5-5-5-5-5-5-5-5----|
---4-4-4-4-4-4-4-4-4-4-4-4-4-4-4-4---5-------5-------5-------5-------5----------|
---4-------4-------4-------4----------------------------------------------------|

Repeat Interlure

Chorus X8

Guitar 1/2
----------------------------------------|
----------------------7--7--7--4--------|
----2--2--2--4--4--1--7--7--7--4--------|
----2--2--2--4--4--1--7--7--7--4--------|
----2--2--2--4--4--1--------------------|
----------------------------------------|

Guitar 3
----------------------------|
----7--7--7--7--4--4--------|
----7--7--7--7--4--4--------|
----7--7--7--7--4--4--------|
----------------------------|
----------------------------|

Repeat Chorus X1

Guitar 1/2
----------------------------|
----7--7--7--7--4--4--------|
----7--7--7--7--4--4--------|
----7--7--7--7--4--4--------|
----------------------------|
----------------------------|

Solo

Guitar 1                                                  1______2_____3______
-----------------------I----------I-----------------------I-----------------|I
-----------------------I----------I-----------------------I-----------------|I
-----------------------I----------I-----------------------I-----------------|I
-----------------------I----------I-----------------------I-----------------|I
----3--3--3--5--5--2---I----------I---3--3--3--5--5--2----I-----------------|I
-----------------------I----------I-----------------------I-----------------|I

Guitar 2 play
----------------------------------------|
----5--5--5--7--7--4--5--5--5--7--7--4--|
----5--5--5--7--7--4--5--5--5--7--7--4--|
----5--5--5--7--7--4--5--5--5--7--7--4--|
----------------------------------------|
----------------------------------------|

Guitar 3
-------------12-----------12--11---13-13-13-13-13-13-13-13-13-13-13-13-13-13-13-13-|
--12-12-12------12-12-12-----------------------------------------------------------|
-----------------------------------13-13-13-13-13-13-13-13-13-13-13-13-13-13-13-13-|
-----------------------------------------------------------------------------------|
-----------------------------------------------------------------------------------|
-----------------------------------------------------------------------------------|

-------------12-----------12--12---------------------------------------|
--12-12-12------12-12-12------------9--9--9---11--11--8---9--9--8------|
-----------------------------------------------------------------------|
-----------------------------------------------------------------------|
-----------------------------------------------------------------------|
-----------------------------------------------------------------------|

---10--10--9--10--10--9--10--10--9--10--10--9--10--10--10--10--10--10--|
------------------------------------------------9---9---8---9---9---8--|
-----------------------------------------------------------------------|
-----------------------------------------------------------------------|
-----------------------------------------------------------------------|
-----------------------------------------------------------------------|
                                               Pause when play Guitar1
-10--10--10--10--10--10-------------------10--10--10--10--10--10--10--10--10--10--10--10-|
-10--10--10--10--10---8--------------------9---9---8---9---9---8--10--10--10--10--10---8-|
-----------------------------------------------------------------------------------------|
-----------------------------------------------------------------------------------------|
-----------------------------------------------------------------------------------------|
-----------------------------------------------------------------------------------------|
                                                   Guitar 1
                                               I---------------------|
                                               I---------------------|
                                               I---------------------|
                                               I---------------------|
                                               I--3--3--3--5--5--2---|
                                               I---------------------|

Guitar 1                                   Guitar 1,2.3
 I----------------------I----------------------|
 I----------------------I---4---4---3----------|
 I----------------------I---4---4---3----------|
 I--3--3--3--5--5--2----I---4---4---3----------|
 I----------------------I----------------------|
 I----------------------I----------------------|

Repeat Interlure

Repeat Chorus X6
Suggest correction
What's this?
You can suggest a correction to this tab. Community and Mods will review your correction and vote to approve or reject it.
comments
We did not receive enough feedback on this tab! Please rate:
print report bad tab
1 2 3 4 5
guest
You may want to rate the tab now too:
select rating
Please do not post tabs as comments. Select "correction" instead!