Oops, an error
Loading. Please wait.

Ex-Yu-Rokeri - Neka Pjesma Tab

151 views 1 this week
no commentswrite comment
1 2 3 4 5
please rate
add to favorites
launch autoscroll
font size
0
reset
how to read this tab
guitar tuner
Tab Pro tools
  • play this tab
  • loop segment
  • change instrument
  • show fretboard
  • metronome
×
Best way to learn
"Ex-yu-rokeri - Neka Pjesma"
Autoscroll
slow
fast
+/-
esc
set tempo
stop
Contributor
Band: Ex-yu-rokeri
Album: 100%Normalno
Done By: Ex-yu-rokeri
E-Mail: 
www.Ultimate-Guitar.Com
www.ex-yu-rokeri.tk

------------------------------------------------------------------------------------------
4. Neka Pjesma
------------------------------------------------------------------------------------------

Intro x2
------------------------|-----------------------|
------------------------|-----------------------|
------------------------|-----------------------|
------------------------|-----------------------|
---2--2--0--2-----------|--2--3--0--3-----------|
------------------------|-----------------------|
Verse                                 1______2_________
------------------------|-----------------------|
------------------------|-----------------------|
------------------------|-----------------------|
------------------------|-----------------------|
---2--2--0--2-----------|--2--3--0--3-----------|
------------------------|-----------------------|

Pre-Chorus x2
-----2-------2-------2--|-------4-------4-----4--|
------------------------|------------------------|
------------------------|------------------------|
------------------------|------------------------|
--2-------2-------2-----|--3-------3-------3-----|
------------------------|------------------------|
    tr
-------------------|
--2----------------|
-------------------|
-------------------|
-------------------|
-------------------|

Chorus x2

--0--0--0----0----0--0--|--0--0--0----0----0--0--|
--0--0--0----0----0--0--|--0--0--0----0----0--0--|
--1--1--1----1----1--1--|--1--1--1----1----1--1--|
--2--2--2----2----2--2--|--2--2--2----2----2--2--|
--3--3--3----3----3--3--|--3--3--3----3----3--3--|
--0--0--0----0----0--0--|--0--0--0----0----0--0--|

--3--3--3----3----3--3--|--3--3--3----3----3--3--|
--4--4--4----4----4--4--|--4--4--4----4----4--4--|
--5--5--5----5----5--5--|--5--5--5----5----5--5--|
------------------------|------------------------|
------------------------|------------------------|
------------------------|------------------------|

Repeat Intro

Repeat Verse

Repeat Pre-Chorus

Repeat Chorus x4

Solo
-------------------------|----------------------|-----------------------|
--3--3--3--3-------2S----|--3----3----2----2----|--L--------------------|
--------------4----------|----------------------|--1----1----1----------|
-------------------------|----------------------|-----------------2-L---|
-------------------------|----------------------|-----------------------|
-------------------------|----------------------|-----------------------|

-----2--3-----2S--3-----2\--|--3--------------------------------|
----------------------------|------2---------------7--Lb--L--L--|
----------------------------|---------3-4-------7---------------|
----------------------------|-------------4-5-------------------|
--2--------2---------2------|-----------------6-----------------|
----------------------------|-----------------------------------|

----------------------|----------------------|-------0--------L----|
--7----7----6----5----|--4----3----2----1----|--0----0--------L----|
----------------------|----------------------|---------------------|
----------------------|----------------------|---------------------|
----------------------|----------------------|---------------------|
----------------------|----------------------|---------------------|

--1---------------------11-12----Lb-|--L----------------|
----------------------9-------------|-------------------|
-------3--3---------8---------------|-------------------|
------------5-----7-----------------|-------------------|
--------------6-7-------------------|-------------------|
------------------------------------|-------------------|

--7~----L--7--7-----7-----|--------------------------|--8~----6~----------5~----|
-----------------7-----7--|--7--7--7--7--7--7--7--7--|--------------7~----------|
--------------------------|--------------------------|--------------------------|
--------------------------|--------------------------|--------------------------|
--------------------------|--------------------------|--------------------------|
--------------------------|--------------------------|--------------------------|

--------8~--------8-------|---------------------|--------------------|
--7~----------7~-----5----|--Lb-----------------|--Lb----------------|
--------------------------|---------------------|--------------------|
--------------------------|---------------------|--------------------|
--------------------------|---------------------|--------------------|
--------------------------|---------------------|--------------------|

--------------------|--L-----------------|--0--0--------L------|-----|
--L--------L--------|--------------------|--0--0--------L------|-----|
--------------------|--------------------|---------------------|-----|
--------------------|--------------------|---------------------|-----|
--------------------|--------------------|---------------------|-----|
--------------------|--------------------|---------------------|-----|

Verse 2 x4
------------------------|------------------------|
------------------------|------------------------|
------------------------|------------------------|
------------------------|------------------------|
--2--2--0--2~----L------|--2--3--0--3~----L------|
------------------------|------------------------|

Pre-Chorus x2
-----2~-------2~-------2~--|-------4~-------4~-----4~--|
---------------------------|---------------------------|
---------------------------|---------------------------|
---------------------------|---------------------------|
--2~-------2~-------2~-----|--3~-------3~-------3~-----|
---------------------------|---------------------------|

Repeat Chorus x4

------------------------|------------------------|
------------------------|------------------------|
------------------------|------------------------|
------------------------|------------------------|
--2--2--0--2~----L------|--2--3--0--3~----L------|
------------------------|------------------------|
comments
We did not receive enough feedback on this tab! Please rate:
print report bad tab
1 2 3 4 5
I want to post or [tab]
guest
You may want to rate the tab now too:
select rating
Please do not post tabs as comments. Select "correction" instead!