Oops, an error
Loading. Please wait.

Eye For An Eye - In Cause Well Never Meet Again Bass Tab

138 views 1 this week
no commentswrite comment
1 2 3 4 5
3 more votes to show rating
add to favorites
launch autoscroll
font size
0
reset
guitar tuner
Autoscroll
slow
fast
+/-
esc
set tempo
stop
Help us to improve Ultimate-Guitar.com Take our survey!
×
Author
----------------------------------------------------------------------------       
in cause well never meet again - Eye for An Eye

----------------------------------------------------------------------------

Tabbed By : Jasper7979

Tuning: e,a,d,g


Intro
G|------------------------------------------------------------------|
D|------------------------------------------------------------------|
A|------------------------------------------------------------------|
E|1-1-1-111-1-1-111-1-1-111-1-1-1/5-5-5-555-5-5-555-5-5-555-5-5-5/1-|

G|------------------------------------------------------------------|
D|------------------------------------------------------------------|
A|------------------------------------------------------------3-5x--|
E|1-1-1-111-1-1-111-1-1-111-1-1-1/5-5-5-555-5-5-555-5-5-5-3-0-------|


Part I
G|----------------------------------------------------------------|
D|----------------------------------------------------------------|
A|5-5-5-0-1-1-1-0---------------3-5-5-5-0-1-1-1-0-----------------|
E|----------------3-3-3-0-5-5-5-------------------3-3-3-0-1-1-5-5-|

G|----------------------------------------------------------------|
D|----------------------------------------------------------------|
A|5-5-5-0-1-1-1-0---------------3-5-5-5-0-1-1-1-0-----------3-2---|
E|----------------3-3-3-0-5-5-5-------------------3-3-3-0-5-----3-|


Fill In 
G|----------------|
D|----------------|
A|5-0-1-0---------|
E|--------3-0-1-5-|

Part II
G|----------------------------------------------------------------|
D|----------------------------------------------------------------|
A|5-5-5-0-1-1-1-0---------------3-5-5-5-0-1-1-1-0-----------------|
E|----------------3-3-3-0-5-5-5-------------------3-3-3-0-1-1-5-5-|

G|----------------------------------------------------------------|
D|----------------------------------------------------------------|
A|5-5-5-0-1-1-1-0---------------3-5-5-5-0-1-1-1-0-----------------|
E|----------------3-3-3-0-5-5-5-------------------3-------1-------|

G|------------------------------------------------------------------|
D|------------------------------------------------------------------|
A|------------------------------------------------------------------|
E|1-1-1-111-1-1-111-1-1-111-1-1-1/5-5-5-555-5-5-555-5-5-555-5-5-5/1-|

G|------------------------------------------------------------------|
D|------------------------------------------------------------------|
A|------------------------------------------------------------3-5x--|
E|1-1-1-111-1-1-111-1-1-111-1-1-1/5-5-5-555-5-5-555-5-5-5-3-0-------|

G|----------------------------------------------------------------|
D|----------------------------------------------------------------|
A|5x--5-0-1x--1-0---------------3-5x--5-0-1x--1-0-----------------|
E|----------------3x--3-0-5x--5-------------------3x--3-0-1-1-5-5-|

G|----------------------------------------------------------------|
D|----------------------------------------------------------------|
A|5-5-5-0-1-1-1-0---------------3-5-5-5-0-1-1-1-0-----------------|
E|----------------3-3-3-0-5-5-5-------------------3-3-3-1/5~~~----|

Fill In 
G|----------------|
D|----------------|
A|5x0-1x0---------|
E|--------3x0-1x5-|

G|----------------|
D|----------------|
A|5x0-1x0---------|
E|--------3x3-3x5-|

End
G|----------------|
D|----------------|
A|5x0-1x0---------|
E|--------3x0-1x5-|

G|----------------|
D|----------------|
A|5x0-1x0---------|
E|--------1/5-----|



| /  slide up
| \  slide down
| h  hammer-on
| p  pull-off
| ~  vibrato
| +  harmonic
| x  Mute note



Suggest correction
Give kudos to tab author, rate the tab!
1 2 3 4 5
comments
print report bad tab
guest
You may want to rate the tab now too:
select rating
Wanna post a correction for this tab? Suggest correction