Oops, an error
Loading. Please wait.

Eyescream - My Fears Chords

1,206 views 6 this week
no commentswrite comment
1 2 3 4 5
3 more votes to show rating
add to favorites
launch autoscroll
font size
0
reset
transpose
0
reset
simplify chords
display chords
guitar tuner
Autoscroll
slow
fast
+/-
esc
set tempo
stop
Help us to improve Ultimate-Guitar.com Take our survey!
×
Author
Difficulty
Tuning
intermediate
D A D G B E
My fears by eyescream

-My 2nd contribution dito. di gaano sikat sila. pero kung cno may gs2 e2 mga chong..

Intro : C , C#5 , D#5 , F ( Kayo na bahala mag pluck )

E---------------------------------------------------|
B---------------------------------------------------|
G---5---5-3-5s8--8-5-8s10---10-8--10-8--5h8p3--3s5--|
D---------------------------------------------------|
A---------------------------------------------------|
E---------------------------------------------------|

E---------------------------------------------------|
B---------------------------------------------------|
G---5---5-3-5s8--8-5-8s10---10s12--15-17------------|
D---------------------------------------------------|
A---------------------------------------------------|
E---------------------------------------------------|

sabayan ng guitar 2 ng intro chords..mas maganda kung i power chords nio nlng.

Verse : C , C#5 , D#5 , F ( Una plucking )

Im staring at the mirror
im wondering what to do
now everything is frozen
im crawling to my room

(Palm Mute part)--Hear out the music

My mind is so confused
im talking to my self
now that im alone, dont u leave me..
E--------------------------------------------------------------------|
B--------------------------------------------------------------------|
G------5---5--5--------8----8--8-------10---10--10------10----10-10--|
D--------------------------------------------------------------------|
A--3-3--3-3--3-----6-6---6-6--6-----8-8--8-8--8------8-8---8-8--8----|
E--------------------------------------------------------------------|

(Paulit ulit lang hanggang before chorus)

Bagsak sa Power chord F before chorus

Chorus : C , C#5 , D#5 , F (guitar 2 mag drop D)
  C     C#5     D#5
Take Away My fears,
  F
Take it away from me,
  C           C#5     D#5
cause i dont need to say
  F
watch it burnin me

(x2)

Verse 2: same as the first verse..ulitin niyo lang.

Chorus : C , C#5 , D#5 , F
  C     C#5     D#5
Take Away My fears,
  F
Take it away from me,
  C           C#5     D#5
cause i dont need to say
  F
watch it burnin me

(x2)

mejo mellow solo: do plucking 4x
E---------------------------------------------------|
B---------------------------------------------------|
G---5--5----5-------8------10-----------------------|
D--3-----3---------6------8-------------------------|
A-3--3----3-------6------8--------------------------|
E---------------------------------------------------|

Dont let it burn my skin, dont let it scar my face (x2)


The hardcore part:

Dont let it burn my skin, dont let it scar my face (x2)

kayo na bahala mag timing nian, listen to the song, palm mute octave nlng kayo. ^^

E---------------|
B---------------|
G--5----8--10---|
D--x----x--x----|
A--3----6--8----|
E---------------|

solo ( not yet sure eh )

Chorus : C , C#5 , D#5 , F
  C     C#5     D#5
Take Away My fears,
  F
Take it away from me,
  C           C#5     D#5
cause i dont need to say
  F
watch it burnin me

(x2)

Outro:

E---------------------------------------------------|
B---------------------------------------------------|
G---5---5-3-5s8--8-5-8s10---10-8--10-8--5h8p3--3s5--|
D---------------------------------------------------|
A---------------------------------------------------|
E---------------------------------------------------|

E---------------------------------------------------|
B---------------------------------------------------|
G---5---5-3-5s8--8-5-8s10---10s12--15-17------------|
D---------------------------------------------------|
A---------------------------------------------------|
E---------------------------------------------------|

bagsak sa F power chord.


un lang. salamat. hello kina emman mark at mga barkada ko sa baguio at manila. sige 
john rome dela rosa..hehe
Suggest correction
Give kudos to tab author, rate the tab!
1 2 3 4 5
comments
print report bad tab
guest
You may want to rate the tab now too:
select rating
Wanna post a correction for this tab? Suggest correction