Oops, an error
Loading. Please wait.

Fabric Attik - The Newest One Bass Tab

39 views 1 this week
no commentswrite comment
1 2 3 4 5
please rate
add to favorites
launch autoscroll
font size
0
reset
guitar tuner
Autoscroll
slow
fast
+/-
esc
set tempo
stop
Help us to improve Ultimate-Guitar.com Take our survey!
×
Contributor
G|------------------------------------|
D|------------------------------------|
A|------------------------------------| x2 Intro
E|44----44----22----000000002222202---|


G|-------------------------------------------------------------------|
D|-------------------------------------------------------------------|
A|-------------------77-77-77-777-------------------44-44-44---------| x2 Verse
E|4444444444444444-----------------2222222222222222----------0-2-0-2-|


G|----------------------------------------------------------------------|
D|----------------------------------------------------------------------|
A|222222222222-----222222222222------222222222222------2222222244444444-| Pre
E|-------------0202--------------0202-------------0202------------------|Chorus


G|----------------------------------------------------------------|
D|----------------------------------------------------------------|
A|---------------22222-22-22-111----------------------------------| x2 Chorus
E|44444-44-44-44-----------------22222-22-22-222-00000-2222-0-2---|


x2 Verse
Pre Chrous
x2 Chorus


Bridge ----> x2 (Bridge Is Shown Below)
G|--------------------------------------4444-1111-----------4444-1111--------|
D|----------------------------------2222----------4444-2222-----------2222---|
A|-----------------222222222222222-------------------------------------------|
E|444444444444444------------------------------------------------------------|

x2 Chorus and end on chorus
comments
We did not receive enough feedback on this tab! Please rate:
print report bad tab
1 2 3 4 5
I want to post or [tab]
guest
You may want to rate the tab now too:
select rating
Please do not post tabs as comments. Select "correction" instead!