Oops, an error
Loading. Please wait.

Face The Falling - Summer Song Tab

63 views 1 this week
no commentswrite comment
1 2 3 4 5
please rate
add to favorites
launch autoscroll
font size
0
reset
how to read this tab
guitar tuner
Tab Pro tools
  • play this tab
  • loop segment
  • change instrument
  • show fretboard
  • metronome
Autoscroll
slow
fast
+/-
esc
set tempo
stop
Contributor
----------------------------------------------------------------------------
                             SUMMER SONG - Face The Falling
----------------------------------------------------------------------------
Tabbed by: Bekoz ov Bernar
Email:spybud@aol.com

Tuning: Standard

Intro
guitar 1:
e|----------------------------------------------------------------|
B|-----------7----------------------------------------------------|
G|-7-7-9-7-9---9-7------------------------------------------------|
D|----------------------------------------------------------------| x7
A|----------------------------------------------------------------|
E|----------------------------------------------------------------|

guitar 2:
e|----------------------------------------------------------------|
B|----------------------------------------------------------------|
G|-4444------7777----------4444------77777777---------------------|
D|-4444-7777-7777-5555 x3 -4444------77777777---------------------|
A|-2222-7777-5555-5555 x3 -2222-7777-55555555---------------------|
E|------5555------3333 x3 ------5555------------------------------|

Verse - *bass*
   s s p p s p s ss p p s p s ss p p s p s ss p p
e|----------------------------------------------------------------|
B|----------------------------------------------------------------|
G|-----4-4---2------7-7---0------4-4---2------7-7~~~--------------|
D|-0-0-----0---0-00-----0---0-00-----0---0-00---------------------|
A|----------------------------------------------------------------|
E|----------------------------------------------------------------|
   s s p p s p s ss p p s p s ss p p s p s ssssssss
e|----------------------------------------------------------------|
B|----------------------------------------------------------------|
G|-----4-4---2------7-7---0------4-4---2--------------------------|
D|-0-0-----0---0-00-----0---0-00-----0---0-00000000---------------|
A|----------------------------------------------------------------|
E|----------------------------------------------------------------|

Pre-Chorus/Chorus
guitar 1:
e|----------------------------------------------------------------|
B|-----------7----------------------------------------------------|
G|-7-7-9-7-9---9-7------------------------------------------------|
D|----------------------------------------------------------------| x7
A|----------------------------------------------------------------|
E|----------------------------------------------------------------|

guitar 2:
e|----------------------------------------------------------------|
B|----------------------------------------------------------------|
G|-4444------7777----------4444------77777777---------------------|
D|-4444-7777-7777-5555 x3 -4444------77777777---------------------|
A|-2222-7777-5555-5555 x3 -2222-7777-55555555---------------------|
E|------5555------3333 x3 ------5555------------------------------|

guitar 1:
e|----------------------------------------------------------------|
B|-----------7----------------------------------------------------|
G|-7-7-9-7-9---9-7------------------------------------------------|
D|----------------------------------------------------------------| x7
A|----------------------------------------------------------------|
E|----------------------------------------------------------------|

guitar 2:
e|----------------------------------------------------------------|
B|----------------------------------------------------------------|
G|-4444------7777----------4444------77777777---------------------|
D|-4444-7777-7777-5555 x3 -4444------77777777---------------------|
A|-2222-7777-5555-5555 x3 -2222-7777-55555555---------------------|
E|------5555------3333 x3 ------5555------------------------------|


Verse - *bass*
   s s p p s p s ss p p s p s ss p p s p s ss p p
e|----------------------------------------------------------------|
B|----------------------------------------------------------------|
G|-----4-4---2------7-7---0------4-4---2------7-7~~~--------------|
D|-0-0-----0---0-00-----0---0-00-----0---0-00---------------------|
A|----------------------------------------------------------------|
E|----------------------------------------------------------------|
   s s p p s p s ss p p s p s ss p p s p s ssssssss
e|----------------------------------------------------------------|
B|----------------------------------------------------------------|
G|-----4-4---2------7-7---0------4-4---2--------------------------|
D|-0-0-----0---0-00-----0---0-00-----0---0-00000000---------------|
A|----------------------------------------------------------------|
E|----------------------------------------------------------------|

Pre-Chorus/Chorus
guitar 1:
e|----------------------------------------------------------------|
B|-----------7----------------------------------------------------|
G|-7-7-9-7-9---9-7------------------------------------------------|
D|----------------------------------------------------------------| x7
A|----------------------------------------------------------------|
E|----------------------------------------------------------------|

guitar 2:
e|----------------------------------------------------------------|
B|----------------------------------------------------------------|
G|-4444------7777----------4444------77777777---------------------|
D|-4444-7777-7777-5555 x3 -4444------77777777---------------------|
A|-2222-7777-5555-5555 x3 -2222-7777-55555555---------------------|
E|------5555------3333 x3 ------5555------------------------------|

guitar 1:
e|----------------------------------------------------------------|
B|-----------7----------------------------------------------------|
G|-7-7-9-7-9---9-7------------------------------------------------|
D|----------------------------------------------------------------| x7
A|----------------------------------------------------------------|
E|----------------------------------------------------------------|

guitar 2:
e|----------------------------------------------------------------|
B|----------------------------------------------------------------|
G|-4444------7777----------4444------77777777---------------------|
D|-4444-7777-7777-5555 x3 -4444------77777777---------------------|
A|-2222-7777-5555-5555 x3 -2222-7777-55555555---------------------|
E|------5555------3333 x3 ------5555------------------------------|

Bridge - Drums and Bass only

Solo
guitar 1:
e|---------------------------------------9h7-----------------------|
B|---5/7-5/7-5--5/7/10/7-5--5/710-7-5-------9h7-----7h9---775------|
G|------------7-----------7----------747-------9-6h9---7h9---747---|
D|-----------------------------------------------------------------|
A|-----------------------------------------------------------------|
E|-----------------------------------------------------------------|

guitar 2:
e|----------------------------------------------------------------|
B|----------------------------------------------------------------|
G|-4444------7777----------4444------77777777---------------------|
D|-4444-7777-7777-5555 x3 -4444------77777777---------------------|
A|-2222-7777-5555-5555 x3 -2222-7777-55555555---------------------|
E|------5555------3333 x3 ------5555------------------------------|

guitar 2:
e|----------------------------------------------------------------|
B|----------------------------------------------------------------|
G|-4444------7777----------4444------77777777---------------------|
D|-4444-7777-7777-5555 x3 -4444------77777777---------------------|
A|-2222-7777-5555-5555 x3 -2222-7777-55555555---------------------|
E|------5555------3333 x3 ------5555------------------------------|

guitar 1:
e|-----------------------------------------------------------------|
B|-7107105---------------------------------------------------------|
G|--------747~~~~--------------------------------------------------|
D|-----------------------------------------------------------------|
A|-----------------------------------------------------------------|
E|-----------------------------------------------------------------|


Outro
guitar 1:
e|-------------------------------------------------------------------|
B|-----------7----------------7----------------7----------------7----|
G|-7-7-9-7-9---9-7--7-7-9-7-9---9-7--7-7-9-7-9---9-7--7-7-9-7-9---9-7|
D|-------------------------------------------------------------------| 
A|-------------------------------------------------------------------|
E|-------------------------------------------------------------------|

guitar 2:
e|----------------------------------------------------------------|
B|----------------------------------------------------------------|
G|-4444------7777----------4444------77777777---------------------|
D|-4444-7777-7777-5555 x3 -4444------77777777---------------------|
A|-2222-7777-5555-5555 x3 -2222-7777-55555555---------------------|
E|------5555------3333 x3 ------5555------------------------------|

guitar 1:
e|-------------------------------------------------------------------|
B|-----------7----------------7----------------7----------------7----|
G|-7-7-9-7-9---9-7--7-7-9-7-9---9-7--7-7-9-7-9---9-7--7-7-9-7-9---9-7|
D|-------------------------------------------------------------------| 
A|-------------------------------------------------------------------|
E|-------------------------------------------------------------------|

guitar 2:
e|----------------------------------------------------------------|
B|----------------------------------------------------------------|
G|-4444------7777----------4444------77777777---------------------|
D|-4444-7777-7777-5555 x3 -4444------77777777---------------------|
A|-2222-7777-5555-5555 x3 -2222-7777-55555555---------------------|
E|------5555------3333 x3 ------5555------------------------------|

guitar 1:
e|-------------------------------------------------------------------|
B|-----------7----------------7----------------7----------------7----|
G|-7-7-9-7-9---9-7--7-7-9-7-9---9-7--7-7-9-7-9---9-7--7-7-9-7-9---9-7|
D|-------------------------------------------------------------------| 
A|-------------------------------------------------------------------|
E|-------------------------------------------------------------------|

guitar 2:
e|----------------------------------------------------------------|
B|----------------------------------------------------------------|
G|-4444------7777----------4444------77777777---------------------|
D|-4444-7777-7777-5555 x3 -4444------77777777---------------------|
A|-2222-7777-5555-5555 x3 -2222-7777-55555555---------------------|
E|------5555------3333 x3 ------5555------------------------------|

guitar 1:
e|-------------------------------------------------------------------|
B|-----------7----------------7----------------7---------------------|
G|-7-7-9-7-9---9-7--7-7-9-7-9---9-7--7-7-9-7-9---9-77~~~~~~~~~~~~~~~~|
D|-------------------------------------------------------------------| 
A|-------------------------------------------------------------------|
E|-------------------------------------------------------------------|

guitar 2:
e|----------------------------------------------------------------|
B|----------------------------------------------------------------|
G|-4444------7777----------4444------77777777~~~~~~~~~~~~~~~~~~~~~|
D|-4444-7777-7777-5555 x3 -4444------77777777~~~~~~~~~~~~~~~~~~~~~|
A|-2222-7777-5555-5555 x3 -2222-7777-55555555~~~~~~~~~~~~~~~~~~~~~|
E|------5555------3333 x3 ------5555------------------------------|


Intro
Verse
Pre-Chorus/ Chorus
Verse
Pre-Chorus/Chorus
Bridge
Solo
Outro


| /  slide up
| \  slide down
| h  hammer-on
| p  pull-off
| ~  vibrato
| +  harmonic
| x  Mute note
============================================================================
comments
We did not receive enough feedback on this tab! Please rate:
print report bad tab
1 2 3 4 5
I want to post or [tab]
guest
You may want to rate the tab now too:
select rating
Please do not post tabs as comments. Select "correction" instead!