Oops, an error
Loading. Please wait.

Faintlight - Starships Tab

1,477 views 1 this week
no commentswrite comment
1 2 3 4 5
please rate
add to favorites
launch autoscroll
font size
0
reset
how to read this tab
guitar tuner
Autoscroll
slow
fast
+/-
esc
set tempo
stop
Help us to improve Ultimate-Guitar.com Take our survey!
×
Author
Difficulty
Tuning
novice
D A D G B E
Song Title:    Starships
Band/ Artist:  Faintlight

Tabbed By:     Pauz Prima (primesenthyx@yahoo.com)

-------------------------------------------------------------------------------------

Dropped D Tuning


INTRO: Bb-F-Eb-Gm-Dm-Eb

Guitar 1:

|-6-66-66-6-6666-5-5-3-3-333-----------------------------|
|-3-33-33-3-3333-6-6-4-4-444-8-88-88-8-888-6-66-8~-8-888-|
|-3-33-33-3-3333-5-5-3-3-333-7-77-77-7-777-7-77-8~-8-888-|
|----------------------------5-55-55-5-555-7-77-8~-8-888-|
|--------------------------------------------------------|
|--------------------------------------------------------|


VERSE 1: Bb-F-Eb-Gm-Dm-Eb

Guitar 1:

|-6-66-66-6-6666-5-5-3-3-333-----------------------------|
|-3-33-33-3-3333-6-6-4-4-444-8-88-88-8-888-6-66-8~-8-888-|
|-3-33-33-3-3333-5-5-3-3-333-7-77-77-7-777-7-77-8~-8-888-|
|----------------------------5-55-55-5-555-7-77-8~-8-888-| 2x
|--------------------------------------------------------|
|--------------------------------------------------------|

Guitar 2:

|--------------------------|
|--------------------------|
|-3~~~~-/10~~-\8~~-/12~~~~-|
|--------------------------|
|-1~~~~-/8~~~-\6~~-/10~~~~-|
|--------------------------|


CHORUS: Bb-F-Eb-Gm-Dm-Eb

Guitar 1 & 2:

|--------------------------------------------------------|
|--------------------------------------------------------|
|--------------------------------------------------------|
|-8-88-88-8-8888-3-333-1-1111-5-5-55-5-5555-0-00-1-1-111-| 2x
|-8-88-88-8-8888-3-333-1-1111-5-5-55-5-5555-0-00-1-1-111-|
|-8-88-88-8-8888-3-333-1-1111-5-5-55-5-5555-0-00-1-1-111-|


|--------------------------------------------------------|
|--------------------------------------------------------|
|--------------------------------------------------------|
|-8-88-88-8-8888-3-333-1-1111-5-5-55-5-5555-0-00-1-1-111-|
|-8-88-88-8-8888-3-333-1-1111-5-5-55-5-5555-0-00-1-1-111-|
|-8-88-88-8-8888-3-333-1-1111-5-5-55-5-5555-0-00-1-1-111-|

|-----------------------------------------------|
|-----------------------------------------------|
|-----------------------------------------------|
|-8-88-88-8-8888-3-333-1-1111-5-5-55-5-55555555-|
|-8-88-88-8-8888-3-333-1-1111-5-5-55-5-55555555-|
|-8-88-88-8-8888-3-333-1-1111-5-5-55-5-55555555-|


INTERLUDE:

Guitar 1 & 2:

|-----------------------------------------------------------------|
|-----------------------------------------------------------------|
|-----------------------------------------------------------------|
|-----------------------------------------------------------------| 2x
|-----------------------------------------------------------------|
|-7b-5555-5-55555-7b-5555-5-55555-7b-5555-5-55555-7b-5555-5-55555-|


VERSE 2: Bb-F-Eb-Gm-Dm-Eb

Guitar 1:

|-6-66-66-6-6666-5-5-3-3-333-----------------------------|
|-3-33-33-3-3333-6-6-4-4-444-8-88-88-8-888-6-66-8~-8-888-|
|-3-33-33-3-3333-5-5-3-3-333-7-77-77-7-777-7-77-8~-8-888-|
|----------------------------5-55-55-5-555-7-77-8~-8-888-|
|--------------------------------------------------------|
|--------------------------------------------------------|

|-6-66-66-6-6666-5-5-3-3-333-------------------------------|
|-3-33-33-3-3333-6-6-4-4-444-8-88-88-8-88888---------------|
|-3-33-33-3-3333-5-5-3-3-333-7-77-77-7-77777--88-7---55----|
|----------------------------5-55-55-5-55555-------8----8~-|
|----------------------------------------------------------|
|----------------------------------------------------------|

|---------------------------------------------------------------|
|---------------------------------------------------------------|
|-----------------------------------------------xxxxxxxxxxxxxxx-|
|-8-88-88-8-8888-3-333-1-1111-5-5-55-5-55555555-xxxxxxxxxxxxxxx-|
|-8-88-88-8-8888-3-333-1-1111-5-5-55-5-55555555-xxxxxxxxxxxxxxx-|
|-8-88-88-8-8888-3-333-1-1111-5-5-55-5-55555555-----------------|
                                               |___pickslide___|

Guitar 2:

|----------------------------------|
|----------------------------------|
|-3~~~~-/10~~-\8~~-/12~~-7~~-/8~~~-|
|----------------------------------|
|-1~~~~-/8~~~-\6~~-/10~~-5~~-/6~~~-|
|----------------------------------|

|---------------------------------------|
|---------------------------------------|
|-3~~~~-/10~~-\8~~-/12~~~~-88-7---55----|
|-------------------------------8----8~-|
|-1~~~~-/8~~~-\6~~-/10~~~~--------------|
|---------------------------------------|

|-----------------------------------------------|
|-----------------------------------------------|
|-----------------------------------------------|
|-8-88-88-8-8888-3-333-1-1111-5-5-55-5-55555555-|
|-8-88-88-8-8888-3-333-1-1111-5-5-55-5-55555555-|
|-8-88-88-8-8888-3-333-1-1111-5-5-55-5-55555555-|


CHORUS: Bb-F-Eb-Gm-Dm-Eb

Guitar 1 & 2:

|-----------------------------------------------------------|
|-----------------------------------------------------------|
|-----------------------------------------------------------|
|-8-88-88-8-8888-3-333-1-1111-5-5-55-5-5555-0-00-1-1-111111-|
|-8-88-88-8-8888-3-333-1-1111-5-5-55-5-5555-0-00-1-1-111111-|
|-8-88-88-8-8888-3-333-1-1111-5-5-55-5-5555-0-00-1-1-111111-|


|--------------------------------------------------------|
|--------------------------------------------------------|
|--------------------------------------------------------|
|-8-88-88-8-8888-3-333-1-1111-5-5-55-5-5555-0-00-1-1-111-|
|-8-88-88-8-8888-3-333-1-1111-5-5-55-5-5555-0-00-1-1-111-|
|-8-88-88-8-8888-3-333-1-1111-5-5-55-5-5555-0-00-1-1-111-|

|-----------------------------------------------|
|-----------------------------------------------|
|-----------------------------------------------|
|-8-88-88-8-8888-3-333-1-1111-5-5-55-5-55555555-|
|-8-88-88-8-8888-3-333-1-1111-5-5-55-5-55555555-|
|-8-88-88-8-8888-3-333-1-1111-5-5-55-5-55555555-|

INTERLUDE:

Guitar 1 & 2:

|-----------------------------------------|
|-----------------------------------------|
|-----------------------------------------|
|-----------------------------------------|
|-----------------------------------------|
|-7b-55-5-5-7b-55-5-5-7b-55-5-5-7b-55-5-5-|

|-----------------------------------------------------------------|
|-----------------------------------------------------------------|
|-----------------------------------------------------------------|
|-----------------------------------------------------------------|
|-----------------------------------------------------------------|
|-7b-5555-5-55555-7b-5555-5-55555-7b-5555-5-55555-7b-5555-5-55555-|


CHORUS: Bb-F-Eb-Gm-Dm-Eb

Guitar 1 & 2:

|--------------------------------------------------------|
|--------------------------------------------------------|
|--------------------------------------------------------|
|-8-88-88-8-8888-3-333-1-1111-5-5-55-5-5555-0-00-1-1-111-|
|-8-88-88-8-8888-3-333-1-1111-5-5-55-5-5555-0-00-1-1-111-|
|-8-88-88-8-8888-3-333-1-1111-5-5-55-5-5555-0-00-1-1-111-|

|-----------------------------------------------|
|-----------------------------------------------|
|-----------------------------------------------|
|-8-88-88-8-8888-3-333-1-1111-5-5-55-5-55555555-|
|-8-88-88-8-8888-3-333-1-1111-5-5-55-5-55555555-|
|-8-88-88-8-8888-3-333-1-1111-5-5-55-5-55555555-|


OUTRO:

|-----------------------------------------------------------------|
|-----------------------------------------------------------------|
|-----------------------------------------------------------------|
|-----------------------------------------------------------------| 2x
|-----------------------------------------------------------------|
|-7b-5555-5-55555-7b-5555-5-55555-7b-5555-5-55555-7b-5555-5-55555-|


~ - let ring
/ - slide up
\ - slide down
b - bend

----------------------------------------------------------------------------------------

> SenthyX Zone
> Senthyx Band


https://www.facebook.com/faintlightnow?fref=ts
Suggest correction
Give kudos to tab author, rate the tab!
1 2 3 4 5
comments
print report bad tab
guest
You may want to rate the tab now too:
select rating
Wanna post a correction for this tab? Suggest correction