Oops, an error
Loading. Please wait.

Fallen Traitors - Fracture tab

86 views 1 this week
no commentswrite comment
1 2 3 4 5
3 more votes to show rating
add to favorites
×
Save as Personal and add changes to this tab that will be seen only by you. Learn more ›
×
You can save this tab as Personal to edit and correct it or add notes. All changes will be seen only by you. Learn more »
launch autoscroll
font size
0
reset
how to read this tab
guitar tuner
edit
Autoscroll
slow
fast
+/-
esc
set tempo
stop
Author
Update!!!

Artist: Darius Heath
Song: Fracture
Album: Nightmare (Un-released)

Song Order:

 Intro
 "Infinite" Verse
 A Chorus
 B Chorus
 P-S-Y-C-H-O SECTION!!!
 Solo A
 Interlude
 Bridge
 Solo B
 A Chorus
 Interlude
 B Chorus
 "Infinite" Verse
 Outro


Intro (x2) - 

E---------------------------------------------------------------------------|
B---------------------------------------------------------------------------|
G---------------------------------------------------------------------------|
D---------------------------------------------------------------------------|
A---------10h11--8h10---------7h8--5h7--3h6p3p0-----------------------------|
D----0000------00----000000000---00---00------------------------------------|

E---------------------------------------------------------------------------|
B---------------------------------------------------------------------------|
G---------------------------------------------------------------------------|
D---------------------------------------------------------------------------|
A---------10h11--8h10---------7h8--5h7--3h6-3*------------------------------|
D----0000------00----000000000---00---00------------------------------------|

Verse (x2)- 

E---------------------------------------------------------------------------|
B---------------------------------------------------------------------------|
G---------------------------------------------------------------------------|
D---------------------------------------------------------------------------|
A----------------------------------3h6p3p0----------------------------------|
D----00005h6003h5000000003h5003h500-----------------------------------------|

E---------------------------------------------------------------------------|
B---------------------------------------------------------------------------|
G---------------------------------------------------------------------------|
D---------------------------------------------------------------------------|
A----00005h6003h5000000003h5003h5003h6-3*-----------------------------------|
D----00005h6003h5000000003h5003h500-----------------------------------------|


Chorus A (x2)-

E---------------------------------------------------------------------------|
B---------------------------------------------------------------------------|
G---------------------------------------------------------------------------|
D---------------------------------------------------------------------------|
A---------14-12----12\11-----------------14-12----12\11--------------------|
D-0-0-0-0-0--0-------------------0-0-0-0-0--0-------------------------------|

Chorus B (x2)-

E---------------------------------------------------------------------------|
B---------------------------------------------------------------------------|
G---------------------------------------------------------------------------|
D-------------------------10-13-----12-13-----------------------------------|
A-----12-13-----10-12-------------------------------------------------------|
D-0-0-------0-0-------0-0-------0-0-----------------------------------------|

E---------------------------------------------------------------------------|
B---------------------------------------------------------------------------|
G---------------------------------------------------------------------------|
D---------------------------------------------------------------------------|
A---12h13h15p13p12p10h12p10h12h13h15p13p12p10h12p10-------------------------|
D-000-----------------0-----------------------------------------------------|

Bridge -

E----------------------9999-8888--7777---6666--55---444-5-------------------|
B---------------------9----9----8-----7------6---5-5---5-5------------------|
G--------------------9-----------8-----7------6---5-------5-----------------|
D-------------------9-------------------7------------------5-0--------------|
A------------------9----------------------------------------50--------------|
D-1-2-3-4-5-6-7-8-9------0----0-0--0-----0-0-0----0-0-0-0-00-0--------------|

E----------------------9999-8888--7777---6666--55---444-5-------------------|
G---------------------9----9----8-----7------6---5-5---5-5------------------|
B--------------------9-----------8-----7------6---5-------5-----------------|
D-------------------9-------------------7------------------5-0--------------|
A------------------9----------------------------------------50--------------|
D-1-2-3-4-5-6-7-8-9------0----0-0--0-----0-0-0----0-0-0-0-00-0--------------|

E---------------------------------------------------------------------------|
B---------------------------------------------------------------------------|
G---------------------------------------------------------------------------|
D--120-120-120-120-120-120-120-120-120-120-120-120-120-120------------------|
A--120-120-120-120-120-120-120-120-120-120-120-120-120-120------------------|
D--0-0-0-0-0-0-0-0-0-0-0-0-0-0-0-0-0-0-0-0-0-0-0-0-0-0-0-0------------------|


Solo A -

E---------------------------------------------------------------------------|
B---------------------------------------------------------------------------|
G---------------------------------------------------12p11h12p11-------------|
D---------------------------------------------------------------------------|
A-------------3-------------3-----------------------------------------------|
D--0-0-1--3-3----0-0-1--3-3----0-2-3--0-2-3--0-2-3--------------------------|

E---------------------------------------------------------------------------|
B---------------------------------------------------------------------------|
G---------------------------------------------------12p11h12p11-------------|
D---------------------------------------------------------------------------|
A-------------3-------------3-----------------------------------------------|
D--0-0-1--3-3----0-0-1--3-3----0-2-3--0-2-3--0-2-3--------------------------|


E---------------------------------------------------------------------------|
B--14^15~~~14^15~~~14-------------------------------------------------------|
G---------------------14-13-14-13-11-13~~~~~~~------------------------------|
D---------------------------------------------------------------------------|
A---------------------------------------------------------------------------|
D---------------------------------------------------------------------------|

E----------13-17-13-----------13-17-13----------12-15-12----------12-15-12--|
B-15----15-----------15----15----------15----13----------13----13-----------|
G----14-----------------14----------------12----------------12--------------|
D---------------------------------------------------------------------------|
A---------------------------------------------------------------------------|
D---------------------------------------------------------------------------|

E-----17-15-13-15-17------17-15-13-12------17-15-17-13-17-12-17-------------|
B-15------------------15---------------15-----------------------15-13-15-17-|
G---------------------------------------------------------------------------|
D---------------------------------------------------------------------------|
A---------------------------------------------------------------------------|
D---------------------------------------------------------------------------|


Interlude (x2)- 

E---------------------------------------------------------------------------|
B---------------------------------------------------------------------------|
G-----9-10-7~~~~~~~~9-10-12-15-10-12-15-9-10-12-9-10-12-7-9-10-7-9-10-7-----|
D---0-----------------------------------------------------------------0-----|
A---------------------------------------------------------------------------|
D-0-------------------------------------------------------------------------|



Harmony (x2)-

E-----------------------------------------6---5-----------------------------|
B----------------------------------5----------------------------------------|
G---7----9--10---10-10-10--9---5-----------------5--------------------------|
D-------------------------------------7-------------------------------------|
A-----0---------------------------------------------------------------------|
D---------------------------------------------------------------------------|

Solo B - 

E---------------------------------------------------------------------------|
B--0h5p0h7p0h8h10p0h8p0h7p0h5p0h4h5p4h5p4-----------------------------------|
G---------------------------------------------------------------------------|
D---------------------------------------------------------------------------|
A---------------------------------------------------------------------------|
D---------------------------------------------------------------------------|

E---------------------------------------------------------------------------|
B--0h5p0h7p0h8h10p0h8p0h7p0h5p0h4h5p4h5p4-----------------------------------|
G---------------------------------------------------------------------------|
D---------------------------------------------------------------------------|
A---------------------------------------------------------------------------|
D---------------------------------------------------------------------------|

E---------------------------------------------------------------------------|
B--0h5p0h7p0h8h10p0h8p0h7p0h5p0h4h5p4h5p4-----------------------------------|
G---------------------------------------------------------------------------|
D---------------------------------------------------------------------------|
A---------------------------------------------------------------------------|
D---------------------------------------------------------------------------|

E---------------------------------------------------------------------------|
B--0h5p0h7p0h8h10p0h8p0h7p0h5p0h4h5p4h5p4-----------------------------------|
G---------------------------------------------------------------------------|
D---------------------------------------------------------------------------|
A---------------------------------------------------------------------------|
D---------------------------------------------------------------------------|

E----12~~~~~~~~~~~~~~~~~~~~~~~~~~~~~~~~~~~~~~~~~~~~~~~~~~~~~~~~~~~~~~~------|
B---------------------------------------------------------------------------|
G---------------------------------------------------------------------------|
D---------------------------------------------------------------------------|
A---------------------------------------------------------------------------|
D---------------------------------------------------------------------------|


[A Chorus - Treble MAX/ Bass LOW =3]

E---------------------------------------------------------------------------|
B---------------------------------------------------------------------------|
G---------------------------------------------------------------------------|
D---------------------------------------------------------------------------|
A----------14-12----12\11-----------------14-12----12\11--------------------|
D-0-0-0-0-0--0-------------------0-0-0-0-0--0-------------------------------|
+REPEAT X2+


[Interlude - Clean- Treble MAX/ Bass MED HI =7]

E---------------------------------------------------------------------------|
B---------------------------------------------------------------------------|
G-----9-10-7~~~~~~~~9-10-12-15-10-12-15-9-10-12-9-10-12-7-9-10-7-9-10-7-----|
D---0-----------------------------------------------------------------0-----|
A---------------------------------------------------------------------------|
D-0-------------------------------------------------------------------------|
+REPEAT X2+


[B Chorus - Treble MAX/ Bass LOW =3]
E---------------------------------------------------------------------------|
B---------------------------------------------------------------------------|
G---------------------------------------------------------------------------|
D-------------------------10-13-----12-13-----------------------------------|
A-----12-13-----10-12-------------------------------------------------------|
D-0-0-------0-0-------0-0-------0-0-----------------------------------------|

E---------------------------------------------------------------------------|
B---------------------------------------------------------------------------|
G---------------------------------------------------------------------------|
D---------------------------------------------------------------------------|
A---12h13h15p13p12p10h12p10h12h13h15p13p12p10h12p10-------------------------|
D-000-----------------0-----------------------------------------------------|
+REPEAT B CHORUS X2+


["Infinite" Verse - Treble MAX/ Bass LOW =3]

E---------------------------------------------------------------------------|
B---------------------------------------------------------------------------|
G---------------------------------------------------------------------------|
D---------------------------------------------------------------------------|
A----------------------------------3h6p3p0----------------------------------|
D----00005h6003h5000000003h5003h500-----------------------------------------|

E---------------------------------------------------------------------------|
B---------------------------------------------------------------------------|
G---------------------------------------------------------------------------|
D---------------------------------------------------------------------------|
A----00005h6003h5000000003h5003h5003h6-3*-----------------------------------|
D----00005h6003h5000000003h5003h500-----------------------------------------|
+REPEAT X2+


[Outro - Treble MAX/ Bass OFF =0]

E---------------------------------t<16,15,14,13,14,15,>-(x8)----------------|
B---------------------------------------------------------------------------|
G---------------------------------------------------------------------------|
D---------------------------------------------------------------------------|
A--6p37p48p510p611p712p813p914p10-(x2)--------------------------------------|
D---------------------------------------------------------------------------|


______________
.:=LEGEND=:. |
*= Harmonic  |
h= Hammer On |
p= Pull Off  |
~= Vibrato   |
_____________|

            
            
Suggest correction
Creating personal tab
Creating personal tab
You can edit any tab online and save it as your Personal.

You can edit, replace or remove any tab part or add personal notes – all changes will be seen only by you.

Personal tabs can be accessed anytime from any device, even offline.
Learn more »
Give kudos to tab author, rate the tab!
1 2 3 4 5
comments
print report bad tab
guest
You may want to rate the tab now too:
select rating
Wanna post a correction for this tab? Suggest correction