Oops, an error
Loading. Please wait.

False Accusations - Act 1 tab

52 views 1 this week
no commentswrite comment
1 2 3 4 5
3 more votes to show rating
add to favorites
×
Save as Personal and add changes to this tab that will be seen only by you. Learn more ›
×
You can save this tab as Personal to edit and correct it or add notes. All changes will be seen only by you. Learn more »
launch autoscroll
font size
0
reset
how to read this tab
guitar tuner
edit
Autoscroll
slow
fast
+/-
esc
set tempo
stop
Act 1

Artist: False Accusations
Tabbed by: langy999
Music Written by: Ben Lang ; Flynn Murray
Tempo: 109 bpm (current working tempo)


[Intro] x2

D|------------------------------|-------------------------------|
A|------------------------------|-------------------------------|
F|------------------------------|-------------------------------|
C|------------------------------|-------------------------------|
G|------------------------------|-------------------------------|
C|--0--0--5h7--5h7--5h7-5h7-5h7-|--0--0--7h8--7h8--7h8-7h8-7h8--|

D|------------------------------|-----------------------------|
A|------------------------------|-----------------------------|
F|------------------------------|-----------------------------|
C|------------------------------|-----------------------3--2--|
G|------------------------------|-----------------------3--2--|
C|--0--0--3h5--3h5--3h5-3h5-3h5-|--0--0--3h5--3h5--3h5--3--2--|

D|------------------------------|-------------------------------|
A|------------------------------|-------------------------------|
F|------------------------------|-------------------------------|
C|------------------------------|-------------------------------|
G|------------------------------|-------------------------------|
C|--0--0--5h7--5h7--5h7-5h7-5h7-|--0--0--7h8--7h8--7h8-7h8-7h8--|

D|------------------------------|-------------------------------------|
A|------------------------------|-------------------------------------|
F|------------------------------|-------------------------------------|
C|------------------------------|-------------------------------------|
G|------------------------------|-------------------------------------|
C|--0--0--3h5--3h5--3h5-3h5-3h5-|--0--0--10h12--10h12--10h12--15--11--|
                                                             +      -

[Verse]

  PM----------------------------------------------------------------------|
D|-------------------------------------------------------------------------------|
A|-------------------------------------------------------------------------------|
F|-------------------------------------------------------------------------------|
C|--12-------10-------8-------7------8------7------5-------3------2------0-------|
G|--12-(x16)-10-(x16)-8-(x16)-7-(x8)-8-(x4)-7-(x4)-5-(x16)-3-(x8)-2-(x4)-0-(x4)--|
C|--12-------10-------8-------7------8------7------5-------3------2------0-------|


[Chorus]

D|----------------------------------------------------------------------------------------------------------|
A|----------------------------------------------------------------------------------------------------------|
F|----------------------------------------------------------------------------------------------------------|
C|--3-------7------5-------8------0-------3------2------0------3-------7------5-------8------0-------3------|
G|--3-(x12)-7-(x4)-5-(x12)-8-(x4)-0-(x16)-3-(x8)-2-(x4)-0-(x4)-3-(x12)-7-(x4)-5-(x12)-8-(x4)-0-(x16)-3-(x8)-|
C|--3-------7------5-------8------0-------3------2------0------3-------7------5-------8------0-------3------|
        
D|--------------|
A|--------------|
F|--------------|
C|--------------|
G|--------------|
C|--15p0--11p0--|
   +   - +   -


[Breakdown]

  PM----------|
D|-------------------7-9-10~---10p9p7--6--|
A|-----------------7----------------------|
F|---------------7------------------------|
C|---------7-8-9--------------------------|
G|--7-9-10--------------------------------|
C|----------------------------------------|

[Verse 2]

(Clean Guitar)

D|-------------------------------------------------------------------------------------------------|
A|-------------------------------------------------------------------------------------------------|
F|-------------------------------------------------------------------------------------------------|
C|--12~---12\10~---10\8~---8\7-8-10-8-7-8-10-8p7\5~--5-10-8-7-5-3~--3-8-7-5-3-2~--7-5-3-2-0h2/-----|
G|-------------------------------------------------------------------------------------------------|
C|-------------------------------------------------------------------------------------------------|


[Chorus 2] x2

(Still Clean) 

D|-------------------------------------------------|-------------------------------------------------|
A|-------------------------------------------------|-------------------------------------------------|
F|-------------------------------------------------|-------------------------------------------------|
C|--3--------------3--------3-----------7----------|-5--------------5--------5-----------8-----------|
G|-----3-----3--------3--------3-----3-----7-----7-|----5-----5--------5--------5-----5-----8-----8--|
C|--------3-----3--------3--------3-----------7----|-------5-----5--------5--------5-----------8-----|

D|-------------------------------------------------|-------------------------------------------------|
A|-------------------------------------------------|-------------------------------------------------|
F|-------------------------------------------------|-------------------------------------------------|
C|--0--------------0--------0--------------0-------|-3--------------3--------2-----------0-----------|
G|-----0-----0--------0--------0-----0--------0----|----3-----3--------3--------2-----2-----0-----0--|
C|--------0-----0--------0--------0-----0--------0-|-------3-----3--------3--------2-----------0-----|


[Build Up]

Guitar 1:
D|----------------------------------------------------------------|
A|------------------1-1-1-1-1-1-1-1-------------------------------|
F|------------------2-2-2-2-2-2-2-2-------------------------------|
C|--0-0-0-0-0-0-0-0-2-2-2-2-2-2-2-2---(build up with distorton)---|
G|--0-0-0-0-0-0-0-0-0-0-0-0-0-0-0-0-------------------------------|
C|--0-0-0-0-0-0-0-0-----------------------------------------------|

Guitar 2:
D|----------------------|
A|----------------------|
F|----------------------|
C|----------------------|
G|---(pickscrape)-------|
C|----------------------|


[Main Riff]

(Just Guitar)

D|------------------------------|-------------------------------|
A|------------------------------|-------------------------------|
F|------------------------------|-------------------------------|
C|------------------------------|-------------------------------|
G|------------------------------|-------------------------------|
C|--0--0--5h7--5h7--5h7-5h7-5h7-|--0--0--7h8--7h8--7h8-7h8-7h8--|

(Drums come in)

D|------------------------------|------------------------x--|
A|------------------------------|------------------------x--|
F|------------------------------|------------------------x--|
C|------------------------------|------------------------x--| (Strike above the nut of the guitar)
G|------------------------------|------------------------x--|
C|--0--0--3h5--3h5--3h5-3h5-3h5-|--0--0--3h5--3h5--3h5b--x--|

(Bass comes in with heavier drums)

D|------------------------------|-------------------------------|
A|------------------------------|-------------------------------|
F|------------------------------|-------------------------------|
C|------------------------------|-------------------------------|
G|------------------------------|-------------------------------|
C|--0--0--5h7--5h7--5h7-5h7-5h7-|--0--0--7h8--7h8--7h8-7h8-7h8--|
                                                           
D|------------------------------|-----------------------------|
A|------------------------------|-----------------------------|
F|------------------------------|-----------------------------|
C|------------------------------|-----------------------3--2--|
G|------------------------------|-----------------------3--2--|
C|--0--0--3h5--3h5--3h5-3h5-3h5-|--0--0--3h5--3h5--3h5--3--2--|

D|------------------------------|-------------------------------|
A|------------------------------|-------------------------------|
F|------------------------------|-------------------------------|
C|------------------------------|-------------------------------|
G|------------------------------|-------------------------------|
C|--0--0--5h7--5h7--5h7-5h7-5h7-|--0--0--7h8--7h8--7h8-7h8-7h8--|

D|------------------------------|-------------------------------------|
A|------------------------------|-------------------------------------|
F|------------------------------|-------------------------------------|
C|------------------------------|-------------------------------------|
G|------------------------------|-------------------------------------|
C|--0--0--3h5--3h5--3h5-3h5-3h5-|--0--0--10h12--10h12--10h12--15--11--|
                                                              +      

[Solo]
                                                                          
D|----------------------------|----------------------------|------------------------|
A|----------------------------|----------------------------|------------------------|
F|--------12br---10h12p10-12--|-------7-9-9br---9-7-9-7----|--------------------7*--|
C|----------------------------|--------------------------7-|--------------7-8-9-----|
G|----------------------------|----------------------------|-------7-9-10-----------|
C|--0--0----------------------|-0--0-----------------------|-0--0-------------------|
    -
              TP------------------------------------|                                             
D|-------------------------------------------------------------|
A|-------------------------------------------------------------|
F|--------14br-------------------------------------------------|
C|--------------14--15--17-----19--20--19--17--15--14----------|
G|-------------------------------------------------------------|
C|--0--0-----------------------------------------------0-------|
                                                       +      -

D|---------------------------|--------------------------|-----------------------------------|
A|---------------------------|--------------------------|-----------------------------------|
F|---------------------------|--------------------------|-----------------------------------|
C|---------------------------|--------------------------|-----------------------------------|
G|---------------------------|--------------------------|-----------------------------------|
C|--0--0--7b8--7b8--7b8--7b8-|-0--0--8b9--8b9--8b9--8b9-|-0--0--10b11--10b11--10b11--10b11--|
         +                     -     +                    -     +

D|-------------------------------|
A|-------------------------------|
F|-------------------------------|
C|-------------------------------|
G|-------------------------------|
C|--0--0--12b14--12b14--0--7/21--|
    -     +             -  +


[Outro]

D|---------------------------|--------------------------|-----------------------------------|
A|---------------------------|--------------------------|-----------------------------------|
F|---------------------------|--------------------------|-----------------------------------|
C|---------------------------|--------------------------|-----------------------------------|
G|---------------------------|--------------------------|-----------------------------------|
C|--0--0--7b8--7b8--7b8--7b8-|-0--0--8b9--8b9--8b9--8b9-|-0--0--10b11--10b11--10b11--10b11--|
   -

D|-------------------------------|
A|-------------------------------|
F|-------------------------------|
C|-------------------------------|
G|-------------------------------|
C|--0--0--12b14--12b14--0--7/21--|
                          +

D|------------------------------|-------------------------------|
A|------------------------------|-------------------------------|
F|------------------------------|-------------------------------|
C|------------------------------|-------------------------------|
G|------------------------------|-------------------------------|
C|--0--0--5h7--5h7--5h7-5h7-5h7-|--0--0--7h8--7h8--7h8-7h8-7h8--|
   -

D|------------------------------|-----------------------------|
A|------------------------------|-----------------------------|
F|------------------------------|-----------------------------|
C|------------------------------|-----------------------3--2--|
G|------------------------------|-----------------------3--2--|
C|--0--0--3h5--3h5--3h5-3h5-3h5-|--0--0--3h5--3h5--3h5--3--2--|

D|------------------------------|-------------------------------|
A|------------------------------|-------------------------------|
F|------------------------------|-------------------------------|
C|------------------------------|-------------------------------|
G|------------------------------|-------------------------------|
C|--0--0--5h7--5h7--5h7-5h7-5h7-|--0--0--7h8--7h8--7h8-7h8-7h8--|

D|------------------------------|
A|------------------------------|
F|------------------------------|
C|------------------------------|
G|------------------------------|
C|--0--0--3h5--3h5--3h5-3h5-3h5-|

Guitar 1:
        TP---|
D|----------------|
A|----------------|
F|----------------| (Do not mute, use the Whammy and slowly go back and 
C|-------------0--|      forth changing the pitch until it fades out)
G|-------------0--|
C|--0--0--21\\\0--|

Guitar 2:
                                         PM--|
D|----------------------------------------------|
A|----------------------------------------------|
F|----------------------------------------------|
C|--10h12p0h8h10p0h7h8p0h5h7p0h3h5p0h2h3p0--0---|
G|------------------------------------------0---| 
C|------------------------------------------0---|


*****************************************
/ = Slide Up  
\ = Slide Down  
h = Hammer On  
p = Pull Off  
b = Bend 
r = Release 
~ = Vibrato
+ = Whammy Pedal Down (2 Octaves Higher)
- = Whammy Pedal Up (Normal)
TP = Tremelo Pick
PM = Palm Mute
* = Natural Harmonic
*****************************************
Suggest correction
Creating personal tab
Creating personal tab
You can edit any tab online and save it as your Personal.

You can edit, replace or remove any tab part or add personal notes – all changes will be seen only by you.

Personal tabs can be accessed anytime from any device, even offline.
Learn more »
Give kudos to tab author, rate the tab!
1 2 3 4 5
comments
print report bad tab
guest
You may want to rate the tab now too:
select rating
Wanna post a correction for this tab? Suggest correction