Oops, an error
Loading. Please wait.

Fatality - Intro Bass Tab

version 1
version 1

Whole song

Interactive

84 views 1 this week
no commentswrite comment
1 2 3 4 5
please rate
add to favorites
launch autoscroll
font size
0
reset
guitar tuner
Tab Pro tools
  • play this tab
  • loop segment
  • change instrument
  • show fretboard
  • metronome
×
Best way to learn
"Fatality - Intro"
Autoscroll
slow
fast
+/-
esc
set tempo
stop
Contributor
Difficulty
Tuning
novice
C G C F A D
This song is actually called Intro. Do not deny because you think this is only part of a song.

#----------------------------------PLEASE NOTE---------------------------------#
#This file is the author's own work and represents their interpretation of the #
#song. You may only use this file for private study, scholarship, or research. #
#------------------------------------------------------------------------------#

INTRO (Bassline)
As recorded by Fatality
(From the 2004 Album DEMO)

Transcribed by Jonathan Rose
	

Words and Music by Fatality

Gtr I (C G C F) - 'Bass'

   Intro
    NYC Hardcore Q=176
   4/4
    Gtr I
    >
    W          +W           +W           +W      3x
||-----------|------------|------------|---------||
||o----------|------------|------------|--------o||
||o----------|------------|------------|--------o||
||--0--------|-(0)--------|-(0)--------|-(0)-----||


                                       H.=H
  >
  W          +W           +W           +H     H     a
|----------|------------|------------|----------------||
|----------|------------|------------|----------------||
|----------|------------|------------|----------------||
|-0--------|-(0)--------|-(0)--------|-(0)----1s===11-||


 Breakdown
  Slower Q=135
  S S E S S E S S Q  S S   S S E S S S S S S Q.
|------------------------|------------------------|
|------------------------|------------------------|
|------------------------|------------------------|
|-0-0---0-0---0-0----0---|-0-0---0-0-0-0-0-0------|


  S S E S S E S S Q  S S   S S E S S S S S S Q.
|------------------------|-------------------------|
|------------------------|-------------------------|
|------------------------|-------------------------|
|-0-0---0-0---0-0----0---|-0-0---0-0-0-0-0-0-------|


  S E. S E. S S +Q   E   S E. S S S S S E. Q
|----------------------|----------------------|
|----------------------|----------------------|
|----------------------|----------------------|
|-0-0--0-0--0-0-(0)--0-|-0-0--0-0-0-0-0-0-----|


  S E. S E. S S +Q   E   S E. S S S S S E. Q
|----------------------|----------------------||
|----------------------|----------------------||
|----------------------|----------------------||
|-0-0--0-0--0-0-(0)--0-|-0-0--0-0-0-0-0-0-----||


 Plan B
  Slower Q=130
  Wx5
|--------||
|--------||
|--------||
|--------||


   Fight
                        >
    Q  Q  S S S S Q    +W           +W           +W
||-------------------|------------|------------|---------||
||o------------------|------------|------------|--------o||
||o------------------|------------|------------|--------o||
||--0--0--0-0-0-0-0--|-(0)--------|-(0)--------|-(0)-----||


 Beatdown
  Q  Q  S S S S Q    +Q   Q  S S S S Q
|------------------|--------------------|
|------------------|--------------------|
|------------------|--------------------|
|-0--0--0-0-0-0-0--|-(0)--0--0-0-0-0-0--|


  +Q   Q  S S S S Q    +Q   Q  S S S S S S E
|--------------------|-------------------------|
|--------------------|-------------------------|
|--------------------|-------------------------|
|-(0)--0--0-0-0-0-0--|-(0)--0--0-0-0-0-0-0-----|


  Q  Q  S S S S Q    +Q   Q  S S S S Q
|------------------|--------------------|
|------------------|--------------------|
|------------------|--------------------|
|----0--0-0-0-0-0--|-(0)--0--0-0-0-0-0--|


  +Q   Q  S S S S Q    +Q   Q  S S S S S S E
|--------------------|-------------------------|
|--------------------|-------------------------|
|--------------------|-------------------------|
|-(0)--0--0-0-0-0-0--|-(0)--0--0-0-0-0-0-0-----|


                                  2/4
  W          W          W          H
|----------|----------|----------|------*|
|----------|----------|----------|------*|
|----------|----------|----------|------*|
|----------|----------|----------|------*|



Duration Legend
---------------
W - whole; H - half; Q - quarter; E - 8th; S - 16th; T - 32nd; X - 64th; a - acciaccatura
+ - note tied to previous; . - note dotted; .. - note double dotted
Uncapitalized letters represent notes that are staccato (1/2 duration)
Irregular groupings are notated above the duration line
Duration letters will always appear directly above the note/fret number it represents the
duration for.  Duration letters with no fret number below them represent rests.  Multi-
bar rests are notated in the form Wxn, where n is the number of bars to rest for.  Low
melody durations appear below the staff

Tablature Legend
----------------
 h   - hammer-on
 p   - pull-off
 b   - bend
 pb  - pre-bend
 r   - bend release (if no number after the r, then release immediately)
 /\  - slide into or out of (from/to "nowhere")
 s   - legato slide
 S   - shift slide
 - natural harmonic
[n]  - artificial harmonic
n(n) - tapped harmonic
 ~   - vibrato
 tr  - trill
 T   - tap
 TP  - trem. picking
 PM  - palm muting
\n/  - tremolo bar dip; n = amount to dip
 \n  - tremolo bar down
 n/  - tremolo bar up
/n\  - tremolo bar inverted dip
 =   - hold bend; also acts as connecting device for hammers/pulls
 <> - volume swell (louder/softer)
 x   - on rhythm slash represents muted slash
 o   - on rhythm slash represents single note slash

Misc Legend
-----------
 |  - bar
||  - double bar
||o - repeat start
o|| - repeat end
*|  - double bar (ending)
 :  - bar (freetime)
 $  - Segno
 &  - Coda
Tempo markers -  = BPM(8/16=s8/s16), where s8 = swing 8ths, s16 = swing 16ths


** Generated using Power Tab Editor by Brad Larsen: The Official Power Tab Web Site
comments
We did not receive enough feedback on this tab! Please rate:
print report bad tab
1 2 3 4 5
I want to post or [tab]
guest
You may want to rate the tab now too:
select rating
Please do not post tabs as comments. Select "correction" instead!