Oops, an error
Loading. Please wait.

Fates - Strings Perfect Harmony Tab

106 views 1 this week
no commentswrite comment
1 2 3 4 5
please rate
add to favorites
launch autoscroll
font size
0
reset
how to read this tab
guitar tuner
Tab Pro tools
  • play this tab
  • loop segment
  • change instrument
  • show fretboard
  • metronome
Autoscroll
slow
fast
+/-
esc
set tempo
stop
Contributor
Difficulty
novice
INTRO
E|12-12--------------12-12-------------12-12-----------|                     
B|9 -9---------------9 -9--------------9 -9 -----------|repeat again but bend 
G|------11-11-------------11-11-------------11-11------|                      
D|------9 -9--------------9 -9 -------------9 -9 ------|                    
A|------------12-12-------------12-12-------------12-12|                      
E|------------9 -9 -------------9 -9 -------------9 -9 |                      
RIFF 1               RIFF 2                 RIFF 3
E|12p9-----------|  |---------------------| |--------------------9-12|
B|----12p.h------|  |---------------------| |----------------9-12----|
G|---------9-----|x6|---------------------| |------------9-11--------|x3-
D|------------11b|  |---------------------| |--------9-11------------|
A|---------------|  |---------------------| |----9-11----------------|
E|---------------|  |12121212121212/999999| |9-12--------------------|
repeat backwards x3 for riff 4
RIFF 5                                      RIFF 6                  RIFF 7
E|--------------------------0h129h129h12|   |-----------|           |12---12---12---12-9-----9|
B|--------------------------9h129h129h12|   |-----------|           |----------------------12-|
G|-------------9h119h119h11-------------|x3 |-----------|Repeat 3x3 |--------------------11---|x3
D|-------------9h119h119h11-------------|   |-----------|but use    |-------------------------|
A|9h129h129h12--------------------------|   |99911121212|trembelo   |-------------------------|
E|0h129h129h12--------------------------|   |99911121212|picking    |-------------------------|
                                
                                  ORDER OF RIFFS
                                  INTROx1
                                  RIFF 1x6
                                  RIFF 2
                                  RIFF 3x3
                                  RIFF 4x3
                                  RIFF 5x3
                                  RIFF 6
                                  RIFF 3x3
                                  RIFF 7x3
                                  INTROx1
                                  RIFF 7
comments
We did not receive enough feedback on this tab! Please rate:
print report bad tab
1 2 3 4 5
I want to post or [tab]
guest
You may want to rate the tab now too:
select rating
Please do not post tabs as comments. Select "correction" instead!