Oops, an error
Loading. Please wait.

Fates - Strings When I Die Tab

26 views 1 this week
no commentswrite comment
1 2 3 4 5
please rate
add to favorites
launch autoscroll
font size
0
reset
how to read this tab
guitar tuner
Tab Pro tools
  • play this tab
  • loop segment
  • change instrument
  • show fretboard
  • metronome
Autoscroll
slow
fast
+/-
esc
set tempo
stop
Contributor
Difficulty
novice
INTRO
E|--------------------------------------------------------------------------12------------15|
B|---------------------------------------------------------------------13-11----------------|
G|12b1212121212r-11h12b1212121212r-11h12b1212121212r-11h12b1212121212r---------13-----------|
D|-------------------------------------------------------------------------------12-----13--|
A|---------------------------------------------------------------------------------12-------|
E|-----------------------------------------------------------------------------------12-----|

E|-------------------------------------------15|
B|14-------------13b-11b-13b1313r-11b----------|
G|--13-------------------------------12--------|
D|----12b121212r-----------------------13------|
A|---------------------------------------11----|
E|-----------------------------------------13--|
VERSE
E|-----2--------------4------------1-------------3-----------6|
B|----2--------------4------------1-------------3-----------6-|
G|---2--------------4------------1-------------3-----------6--|
D|--2--------------4------------1-------------3-----------6---|Repeat Throughout Verse
A|-2--------------4------------1-------------3-----------6----|
E|2--------------4------------1-------------3-----------6-----|
Once There was a dictator who ruled the lands of
Unhappy and unsatisfied people. Afte several years of
Torture and Doubt, a war broke out. I am a soilder bent
on assassinating the dictator. During a battle at his
underground bunker, i found him and i attacked him. He
Turned around and blocked my punch. Then he Snagged my
Pistol but i managed to kick it out of his hand. Then I
Grabbed my knife, Blocked his punch and forced the knife into
his throat. I watched him fall to the ground as he tried to
stop the fountain of blood. I kicked his head and he fell to the
ground,lifeless. In my Excitement, i heard a gunfire and thats
all i can remember. Then i woked up at some golden stairs

Chorus
E|---2------------------x------0---------0|
B|--3-3----1-----1-----1-1------0-------0-|
G|-2---2----0---0-----x---x------1-----1--|
D|0-----0----2-2-----3-----3------2---2---|Repeat Throughout Chorus
A|------------3-----3-------3------2-2----|
E|-----------------1---------1------0-----|
When i die i shall be welcomed at the gates as a hero by my
fallen comrads as i climb up the stairway to heaven.
When he dies, hell shall erupt and torture him for all eternity
       as im up in in heaven laughing

VERSE 2
___________
AS i began to smell smoke, the stairs exploded and i screamed
as i fell into a fiery hole...being tortured by demons
I managed to see the stairs restored and the dictator
was climbing them as i saw him giving me the bird.

Chorus 2
_________
When i die, sadly, i shall be a hellhonds chew toy and
be tortured every milisecond by hells wrost "God Help Me!"
When he Dies, Suprisingly, he will be greeted by angels and
every wish was granted as if he did good things back on earth

Verse 3
__________
It felt like years but finally i met the devil.I asked him why
im here while the dictator was talking philosophy with socroties
his answer was "You...Murder...he....Dick".As he left my torture continued

SOLO
E|-----------131313131313---------------------------------------------|
B|10h11h12h13------------11b------------------------------------------|
G|----------------------------7777766666555554444-77777666665555544444|
D|----------------------------7777766666555554444-77777666665555544444|
A|--------------------------------------------------------------------|
E|--------------------------------------------------------------------|

-----------------------------|
-----------------------------|
-77777666665555544444-66646--|
-77777666665555544444-44444--|
-----------------------------|
-----------------------------|


E|--------2-------2-------2-------2-------2-------2---|
B|-------3-3-----3-3-----3-3-----3-3-----3-3-----3-3--|
G|------2---2---2---2---2---2---2---2---2---2---2---2-|
D|5b---0-----0-0-----0-0-----0-0-----0-0-----0-0-----0|
A|----------------------------------------------------|
E|----------------------------------------------------|

--22222222222222----101112---------------------------------2|
--33333333333333--12--------101112-------------------------0|
--22222222222222----------12--------101112------------------|
--00000000000000------------------12--------101112----------|
------------------------------------------12--------101112--|
--------------------------------------------------12--------|

VERSE 4
_________
Apparently bad people arent bad and good people arent good. Philosophy is flipped
right is wrong.up is down. i hope you can here my screams of pain and true
mythology. For i should be in heaven and he should be in hell

CHORUS 3
__________
When i die, i only wish to be welcomed at the gates of heaven and greet my
fallen comrads at the top of the stairway to heaven.
When he dies, i only wish for him to be tortured and i was in heaven
laughing                     "Please god....answer my prayers"

OUTRO
E|22222---------XXXXX--00000--00--00--0vvvv0|
B|33333--11111--11111--00000--11--00--2vvvv2|
G|22222--00000--XXXXX--11111--22--00--2vvvv2|
D|00000--22222--33333--22222--22--22--2vvvv2|
A|-------33333--33333--22222--00--22--0vvvv0|
E|--------------11111--00000------00--------|
comments
We did not receive enough feedback on this tab! Please rate:
print report bad tab
1 2 3 4 5
I want to post or [tab]
guest
You may want to rate the tab now too:
select rating
Please do not post tabs as comments. Select "correction" instead!