Oops, an error
Loading. Please wait.

Fear The Jackalope - Sharkbite Tab

61 views 1 this week
no commentswrite comment
1 2 3 4 5
please rate
add to favorites
launch autoscroll
font size
0
reset
how to read this tab
guitar tuner
Autoscroll
slow
fast
+/-
esc
set tempo
stop
Help us to improve Ultimate-Guitar.com Take our survey!
×
Author
Difficulty
intermediate
Fear The Jackalope
Breach [EP]- Camel Jockey
Written and Tabbed by Kyle E.
Open Csus2 {C,G,C,G,C,D}

Intro [after bass] {Up-picking sounds best}

|---------------------------------------------------|
|---------------------------------------------------|
|---------------------------------------------------|
|---------------------------------------------------|
|---------------------------------------------------|
|--0h1---0h1--0h1-0h1-0h1-0h1-----------------------|

|---------------------------------------------------|
|---------------------------------------------------|
|---------------------------------------------------|
|---------------------------------------------------|
|--0h1---0h1--0h1-0h1-0h1-0h1-----------------------|
|--0h1---0h1--0h1-0h1-0h1-0h1-----------------------|

|---------------------------------------------------|
|-------------0h1--1~-------------------------------|
|--------0h1--0h1--1~-------------------------------|
|--0h1---0h1--0h1--1~---\\\\\-----------------------|
|--0h1---0h1--0h1--1~---\\\\\-----------------------|
|--0h1---0h1--0h1--1~---\\\\\-----------------------|

Intro Breakdown [BD A]

|-----------------------------------------------------------------|
|-----------------------------------------------------------------|
|-----------------------------------------------------------------|
|-----------------------------------------------------1h2h3-------|
|-000-000~--000-000~--000-000~--000-000~--------1h2h3-------1h2h3-|
|-000-000~--000-000~--000-000~--000-000~---1h2h3------------------|
  ... ...   ... ...   ... ...   ... ...

|-----------------------------------------------------------------|
|-----------------------------------------------------------------|
|-----------------------------------------------------------------|
|-----------------------------------------------------1h2h3-------|
|-000-000~--000-000~--000-000~--000-000~--------1h2h3-------1h2h3-|
|-000-000~--000-000~--000-000~--000-000~---1h2h3------------------|
  ... ...   ... ...   ... ...   ... ...

|-----------------------------------------------------------------|
|-----------------------------------------------------------------|
|-----------------------------------------------------------------|
|------------------------------------------------1h2h3------------|
|-000-000--000-000--000-000--000-000--------1h2h3-----1h2h3-------|
|-000-000--000-000--000-000--000-000---1h2h3----------------------|
  ... ...  ... ...  ... ...  ... ...

|-----------------------------------------------------------------|
|-----------------------------------------------------------------|
|-----------------------------------------------------------------|
|-----------------------------------------------------------------|
|-000-000~--000-000~--000-000~--000-000~--------1h2h3-1p0~--------|
|-000-000~--000-000~--000-000~--000-000~---1h2h3------------------|
  ... ...   ... ...   ... ...   ... ...


Main riff [Riff A]

|---------------------------------------------------|
|---------------------------------------------------|
|---------------------------------------------------|
|---10---------------------------7------------------|
|------10-12-10-8-10-8p0-----7-8---8-7-*8b10b8------|
|-88--8--8--8--8-8--88p0---00-0-0-0-0-0-------------|
  ..  .  .  .  . .  .      .. . . . . .

|------------------------------------[3][3][3][3][3]------|
|------------------------------------[3][3][3][3][3]------|
|------------------------------------[3][3][3][3][3]------|
|---10---------------------------7p0-[3][3][3][3][3]------|
|------10-12-10-8-10-8p0-----7-8-----[3][3][3][3][3]------|
|-88--8--8--8--8-8--88p0---00-0-0----[3][3][3][3][3]------|
  ..  .  .  .  . .  .      .. . .

|---------------------------------------------------|
|---------------------------------------------------|
|---------------------------------------------------|
|---10---------------------------7------------------|
|------10-12-10-8-10-8p0-----7-8---8-7-*8b10b8------|
|-88--8--8--8--8-8--88p0---00-0-0-0-0-0-------------|
  ..  .  .  .  . .  .      .. . . . . .

|-------------------------------------------------------|
|-------------------------------------------------------|
|-------------------------------------------------------|
|---10---------------------------7---------\\\\\--------|
|------10-12-10-8-10-8p0-----7-8---8-7p0---\\\\\--------|
|-88--8--8--8--8-8--88p0---00-0-0-0-0------\\\\\--------|
  ..  .  .  .  . .  .      .. . . . .

Alternate Verse Riff [Riff B]

|-----------------------------------------------------|
|-----------------------------------------------------|
|-----------------------------------------------------|
|-----------------------------------------------------|
|----3-5-7~--------------3-5-7~-------3h5h7-----3h5h7-|
|--00-0-0----0030507~--00-0-0----3h5h7-----3h5h7------|
   .. . .    .. . .    .. . .

Then repeat [BD A] 2x

Then the tremolo picking section [Riff C]

|-------------------------------------------------------|
|-------------------------------------------------------|
|-------------------------------------------------------|
|---10~--------------------------------7~-10~-7~--------|
|-8~---12~-10~-8~-10~-8~-7~---5~-7~-8~----------8~-10~--|
|-------------------------------------------------------|

|-----------------------------------------------------------|
|-----------------------------------------------------------|
|-----------------------------------------------------------|
|---10~------------------------0123-0123-0123-1p0~----------|
|-8~---12~-10~-8~-10~-8~-*7p0--0123-0123-0123-1p0~----------|
|------------------------------0123-0123-0123-1p0~----------|
                               .... .... ....
Repeat 2x

Then repeat [Riff A] 4x

Then repeat the [BD A] riff, but at a faster tempo

Then this alternate Breakdown [BD B]

|-----------------------------------------------------|
|-----------------------------------------------------|
|-----------------------------------------------------|
|--0-0-0--0-0-0--0-0-0--0-0-0------------1h2h3--------|
|--0-0-0--0-0-0--0-0-0--0-0-0-------1h2h3-----1h2h3---|
|--0-0-0--0-0-0--0-0-0--0-0-0--1h2h3------------------|
   . . .  . . .  . . .  . . .

|------------------------------------------------|
|------------------------------------------------|
|------------------------------------------------|
|--0-0-0--0-0-0--0-0-0--0-0-0--------------------|
|--0-0-0--0-0-0--0-0-0--0-0-0-------1h2h3-1p0~---|
|--0-0-0--0-0-0--0-0-0--0-0-0--1h2h3-------------|
   . . .  . . .  . . .  . . .
Then finish with [BD A]

Then [Riff C {Tremolo}] again

Leading to an alternate version of Riff A, [Riff D]


|---------------------------------------------------|
|---------------------------------------------------|
|---------------------------------------------------|
|---10---------------------0~-0~-0~-1-0-0~-0~-------|
|------10-12-10-8-10-8p0---0~-0~-0~-1-0-0~-0~-------|
|-88--8--8--8--8-8--88p0---0~-0~-0~-1-0-0~-0~-------|
  ..  .  .  .  . .  .      .  .  .  . . .  .

|----------------------------------------[3]~------|
|----------------------------------------[3]~------|
|----------------------------------------[3]~------|
|---10---------------------0~-0~-0~-1-0--[3]~------|
|------10-12-10-8-10-8p0---0~-0~-0~-1-0--[3]~------|
|-88--8--8--8--8-8--88p0---0~-0~-0~-1-0--[3]~------|
  ..  .  .  .  . .  .      .  .  .  . .
Suggest correction
What's this?
You can suggest a correction to this tab. Community and Mods will review your correction and vote to approve or reject it.
comments
We did not receive enough feedback on this tab! Please rate:
print report bad tab
1 2 3 4 5
guest
You may want to rate the tab now too:
select rating
Please do not post tabs as comments. Select "correction" instead!