Oops, an error
Loading. Please wait.

Feed The Birds - Disneys Mary Poppins With Bird Lady Tab

11,357 views 12 this week
2 commentsread comments
1 2 3 4 5
excellent!
x 3
add to favorites
launch autoscroll
font size
0
reset
how to read this tab
guitar tuner
Tab Pro tools
  • play this tab
  • loop segment
  • change instrument
  • show fretboard
  • metronome
×
Best way to learn
"Feed The Birds - Disneys Mary Poppins With Bird Lady"
Autoscroll
slow
fast
+/-
esc
set tempo
stop
Contributor
Difficulty
novice
e|0------------------000-----------------|
B|-653---010----0-------653---010--------|
G|----542---2245-212-------542---2421-12-|
D|----------------------------------2----|
A|---------------------------------------|
E|---------------------------------------|
Early each day to the steps of saint pauls, the little old bird woman comes.

In her own special way to the people she calls, "come buy my bags full of crumbs"


e|-11131-----11131-------------------------|
B|------6535-----5---556531---10--24221-12-|
G|2---------2-------------224---------2----|
D|-----------------------------------------|
A|-----------------------------------------|
E|-----------------------------------------|

"Come feed the little birds, show them you care, and you'll be glad if you do.
Their young ones are hungry, their nests are so bare, all it takes is tuppence from you."

e|---252-25955457--301252-----------------------|
B|-25---5---------------5-7 10 7 5   5 4 5 7 5--|
G|2---------------------------------------------|
D|----------------------------------------------|
A|----------------------------------------------|
E|----------------------------------------------|

"feed the birds, tuppence a bag. Tuppence, tuppence, tuppence a bag.
Feed the birds," that's what she cries. While overhead, her birds fill the skies
comments
We did not receive enough feedback on this tab! Please rate:
print report bad tab
1 2 3 4 5
2 comments total.
0 reply
Zekko wrote on November 7 2011, 07:22 am

I believe you have the "feed the birds..." part in the wrong key relative to the rest (the original song is actually 6 semitones higher)

relative to the first 2 parts you posted, I think the "feed the birds..." part goes like this:

e|--------------0----------|---------------------------|
B|------1-----1--1-1-0-1-3-|------1-----1----1-0-1-3-1-|
G|---0-2-2-0-2-------------|---0-2-2-0-2-2-0-----------|
D|--2----------------------|--2------------------------|
A|-3-----------------------|-3-------------------------|
E|-------------------------|---------------------------|

0 reply
Sarah.I.p wrote on January 7 2013, 03:14 am

Hello, I noticed that you don't have the third verse... so I was wondering if maybe you could like add that in or something?? Because I do love the third verse very much... You know that really cool part that goes;

"All around the cathedral, the saints and apostles look down as she sells her wares
Although you can't see it, you know they are smiling. Each time someone shows that he cares."

Then it goes into the chorus again... but still...

I want to post or [tab]
guest
You may want to rate the tab now too:
select rating
Please do not post tabs as comments. Select "correction" instead!