Oops, an error
Loading. Please wait.

Feed The Rhino - Mr Red Eye Tab

1,433 views 3 this week
2 commentsread comments
1 2 3 4 5
please rate
add to favorites
launch autoscroll
font size
0
reset
how to read this tab
guitar tuner
Autoscroll
slow
fast
+/-
esc
set tempo
stop
Help us to improve Ultimate-Guitar.com Take our survey!
×
Contributor
-------------------------------------------------------------------------------
                             Mr. Red Eye - FEED THE RHINO
-------------------------------------------------------------------------------
Tabbed by: tabTheRhino
Tuning: Drop D

my first guitar tab - so please ignore any strange notations

*edit*
i found out the band play in drop c and i want to rewrite this tab
ive just updated the chords in the main riffs but i will be uploading my new one

PART A) - starting at 0:07

e|----------------------------------|
B|----------------------------------|
G|-----6-----6-----6----------------|
D|-5-5-5-5-5-5-5-5-5--5-5-5-8-8-7-7-|
A|-5-5-5-5-5-5-5-5-5--5-5-5-8-8-7-7-|
D|-5-5-5-5-5-5-5-5-5--5-5-5-8-8-7-7-|   x4

PART B)

e|------------------------------|
B|------------------------------|
G|------------------------------|
D|-10~10---8~8---6~6---1~-0-1\3-|
A|-10~10---8~8---6~6---1~-0-1\3-|
D|-10~10---8~8---6~6---1~-0-1\3-| x2

PART C)

e|------------------------------|
B|------------------------------|
G|-----6-----6-----6------------|
D|-5-5-5-5-5-5-5-5-5--5-8-8-7-7-|
A|-5-5-5-5-5-5-5-5-5--5-8-8-7-7-|
D|-5-5-5-5-5-5-5-5-5--5-8-8-7-7-|   x3

e|----------------------------------|
B|----------------------------------|
G|----------------------------------|
D|-5-5---5-5---5-5----2~0-1-4-3-1-0-|
A|-5-5---5-5---5-5----2~0-1-4-3-1-0-|
D|-5-5---5-5---5-5----2~0-1-4-3-1-0-|

PART D)

e|-----------------|-----------------|
B|-----------------|-----------------|
G|-----------------|-----------------|
D|-8-8-8-8-8-8-8-8-|-8-8-8-8-8-8-8-8-|
A|-8-8-8-8-8-8-8-8-|-8-8-8-8-8-8-8-8-|
D|-8-8-8-8-8-8-8-8-|-8-8-8-8-8-8-8-8-|

e|-----------------|-----------------|
B|-----------------|-----------------|
G|-----------------|-----------------|
D|-5-5-5-5-5-5-5-5-|-5-2~0-1-4-3-1-0-|
A|-5-5-5-5-5-5-5-5-|-5-2~0-1-4-3-1-0-|
D|-5-5-5-5-5-5-5-5-|-5-2~0-1-4-3-1-0-|

PART E)

e|-----------------|-----------------|
B|-----------------|-----------------|
G|-----------------|-----------------|
D|-8-8-8-8-8-8-8-8-|-8-8-8-8-8-8-8-8-|
A|-8-8-8-8-8-8-8-8-|-8-8-8-8-8-8-8-8-|
D|-8-8-8-8-8-8-8-8-|-8-8-8-8-8-8-8-8-|

PART F) breakdown

e|--------------------------|
B|--------------------------|
G|--------------------------|
D|-5-5-5---11b--5-5-5-2-2~--|
A|-5-5-5--------5-5-5-2-2~--|
D|-5-5-5--------5-5-5-2-2~--| x6

PART G)

e|---------------------|
B|---------------------|
G|---------------------|
D|--11-10--5-4--2\0-1~-|
A|--11-10--5-4--2\0-1~-|
D|--11-10--5-4--2\0-1~-|

PART H)

e|------------------------------|
B|------------------------------|
G|------------------------------|
D|-5-5---5-5---5-5----5-8-8-7-7-|
A|-5-5---5-5---5-5----5-8-8-7-7-|
D|-5-5---5-5---5-5----5-8-8-7-7-|   x4

PART I)

e|----------------------------------------------------------|
B|----------------------------------------------------------|
G|----------------------------------------------------------|
D|-11-10--5-4--2\0-1~---0~---5~---0~---1~---0~---\5~--0~----|
A|-11-10--5-4--2\0-1~---0~---5~---0~---1~---0~---\5~--0~----|
D|-11-10--5-4--2\0-1~---0~---5~---0~---1~---0~---\5~--0~----|

e|-----------------------------------------------------|
B|-----------------------------------------------------|
G|----------------------10b-----------------------10b--|
D|-5-5-5---11b--5-5-5--------5-5-5---11b--5-5-5---11b--|
A|-5-5-5--------5-5-5--------5-5-5--------5-5-5--------|
D|-5-5-5--------5-5-5--------5-5-5--------5-5-5--------|
     * *          * *          * *          * *            (palm mute)

PART J)

e|----------------------------------|
B|----------------------------------|
G|----------------------------------|
D|-5-5---5-5---5-5----5-5-5-8-8-7-7-|
A|-5-5---5-5---5-5----5-5-5-8-8-7-7-|
D|-5-5---5-5---5-5----5-5-5-8-8-7-7-|   x3

e|----------------------------------|
B|----------------------------------|
G|----------------------------------|
D|-5-5---5-5---5-5----2~0-1-4-3-1-0-|
A|-5-5---5-5---5-5----2~0-1-4-3-1-0-|
D|-5-5---5-5---5-5----2~0-1-4-3-1-0-|

PART K)

e|--------------------------|
B|--------------------------|
G|--------------------------|
D|-5-5-5---11b--5-5-5-2-2~--|
A|-5-5-5--------5-5-5-2-2~--|
D|-5-5-5--------5-5-5-2-2~--| x4

PART L)

e|------------------------------------------------------------------|
B|------------------------------------------------------------------|
G|------------------------------------------------------------------|
D|-5-5-5-5---x-x-x-x---5-5-5-5---x-x---5-5-5-5---x-x-x-x---5-5-5-5\-|
A|-5-5-5-5---x-x-x-x---5-5-5-5---x-x---5-5-5-5---x-x-x-x---5-5-5-5\-|
D|-5-5-5-5---x-x-x-x---5-5-5-5---x-x---5-5-5-5---x-x-x-x---5-5-5-5\-|

Suggest correction What's this?
You can suggest a correction to this tab. Community and Mods will review your correction and vote to approve or reject it.
comments
We did not receive enough feedback on this tab! Please rate:
print report bad tab
1 2 3 4 5
2 comments total.
+1 reply
damo13 420 wrote on December 27 2011, 07:21 pm

Pretty sure its 8 and 7 rather than 7 and 6, also that extra note in the chord that makes it sound evil is the flatened 5th, which is the 6th fret on G.

e|----------------------------------|
B|----------------------------------|
G|-------6-6---6-6----6-6-6---------|
D|-5-5---5-5---5-5----5-5-5-8-8-7-7-|
A|-5-5---5-5---5-5----5-5-5-8-8-7-7-|
D|-5-5---5-5---5-5----5-5-5-8-8-7-7-|

0 reply
rooyaan 32 wrote on January 24 2014, 05:42 pm

drop c bro

I want to post or [tab]
guest
You may want to rate the tab now too:
select rating
Please do not post tabs as comments. Select "correction" instead!