Oops, an error
Loading. Please wait.

Fermentacja - Pierog Tab

99 views 1 this week
no commentswrite comment
1 2 3 4 5
please rate
add to favorites
launch autoscroll
font size
0
reset
how to read this tab
guitar tuner
Autoscroll
slow
fast
+/-
esc
set tempo
stop
Help us to improve Ultimate-Guitar.com Take our survey!
×
Author
Difficulty
Tuning
novice
C F A# D# G C
         ------------ FERMENTACJA  -------------

Pieróg

Guitar #1 - One Step Down [d, A, F, C, G, D]
Guitar #2 - One Step Down [d, A, F, C, G, D]


Intro

Gtr#1

D||-----------------------------||
A||-----------------------------||
F||-----------------------------||
C||-----------------------------||
G||-----------------------------|| x4
d||-0-0-7-0-0-5-0-0-3-0-2-2-2-3-||  

Gtr #2

D||-----------------------------||
A||-----------------------------||
F||-----------------------------||
C||-----------------2-2-2-2-2-2-||
G||-2-2-2-2-2-2-2-2-2-2-2-2-2-2-|| Just before verse.
d||-0-0-0-0-0-0-0-0-0-0-0-0-0-0-||      

Verse

Gtr#1
           Szybko wyciąg blachę...
D||-----------------------------||
A||-----------------------------||
F||-----------------------------||
C||-----------------------------||
G||-----------------------------|| x4
d||-0-0-7-0-0-5-0-0-3-0-2-2-2-3-||  

Gtr#2

D||--------------------------------||
A||--------------------------------||
F||--------------------------------||
C||--------------------------------||
G||-----7-----5-----3-----2-------5|| x4
d||-0-0---0-0---0-0---0-0---0-5h7--||  

CHORUS

Gtr#1

D||-----------------------------||
A||-----------------------------||
F||--4--4--5--7--7--7--7--9--9--||
C||--4--4--5--7--7--7--7--9--9--||
G||--2--2--3--5--5--5--5--7--7--|| x4
d||-----------------------------||  


Gtr#1

D||----------------------------------||
A||----------------------------------||
F||----------------------------------||
C||---------------------------5h7p5--||
G||-2-2---5-------5--2-2--7---------7||
d||-0-0---3-0-5h7----0-0--5-0--------||  

D||------------------------------------||
A||------------------------------------||
F||------------------------------------||
C||------------------------------------||
G||-2-2---5-------5---2-------5-2-----5||
d||-0-0---3-0-5h7-----0---5h7---0-5h7--||
Suggest correction
What's this?
You can suggest a correction to this tab. Community and Mods will review your correction and vote to approve or reject it.
comments
We did not receive enough feedback on this tab! Please rate:
print report bad tab
1 2 3 4 5
guest
You may want to rate the tab now too:
select rating
Please do not post tabs as comments. Select "correction" instead!