Oops, an error
Loading. Please wait.

Fields Of Elysia - Cast My Soul Tab

17 views 1 this week
no commentswrite comment
1 2 3 4 5
please rate
add to favorites
launch autoscroll
font size
0
reset
how to read this tab
guitar tuner
Autoscroll
slow
fast
+/-
esc
set tempo
stop
Help us to improve Ultimate-Guitar.com Take our survey!
×
Author
Difficulty
Tuning
novice
C# G# C# F# A# D#
-------------------------------------------------------------------------------
                             Cast My Soul - Fields of Elysia
-------------------------------------------------------------------------------
Tabbed by: Jake

Tuning: Drop C#
Intro
e|---------------------------------------------------------------------------|
B|---------------------------------------------------------------------------|
G|---------------------------------------------------------------------------|
D|--------------------0---------------------------0---5h6p5\0----------------|
A|------------pm0-0-0e--------------------pm0-0-0e---------------------------|
E|pm0-0-0-0-0----------------pm0-0-0-0-0-------------------------------------|
Repeat x2

e|---------------------------------------------------------------------------|
B|---------------------------------------------------------------------------|
G|---------------------------------------------------------------------------|
D|----------------------------------------------------------|1-1-1-1|--------|
A|----------0-------0-----0-------0-------0-----------------|1-1-1-1|--------|
E|pm0-0-0-0---pm0-0---pm0---pm0-0---pm0-0------------------------------------|
Repeat x4                                                   ^^^^^^^^^
On second time, play this after the last open A, & on fourth time, play it once, then 
mute before verse riff.

Verse
e|---------------------------------------------------------0-----------------|
B|---------------------------------------------------------0-----------------|
G|---------------------------------------------------------------------------|
D|2-2-2pm--2h3p2-0-0-0pm--0-h2h3-2-2-2pm--2h3p2-0-0-0pm--0-------------------|
A|2-2-2pm--2h3p2-0-0-0pm--0-h2h3-2-2-2pm--2h3p2-0-0-0pm--0-------------------|
E|---------------------------------------------------------------------------|
Repeat xUnset

Bridge
e|---------------------------------------------------------------------------|
B|---------------------------------------------------------------------------|
G|--------------------------------------------0---0--------------------------|
D|7--7h8-7h8---\5--5h6-5h6---\3--3h4p3-0----0---0----------------------------|
A|7--7h8-7h8---\5--5h6-5h6---\3--3h4p3-0--0----------------------------------|
E|---------------------------------------------------------------------------|
Repeat x4

Chorus
e|---------------------------------------------------------------------------|
B|---------------------------------------------------------------------------|
G|-----0-7-8-7-0-------0-7-8-7b~---------------------------------------------|
D|7--0------------7--0----------------------------------|7-7-7-5-3|----------|
A|7---------------7-------------------------------------|7-7-7-5-3|----------|
E|---------------------------------------------------------------------------|
Repeat xUnset
After playing three times, play the signified to end rhythm, then start the riff again.

After the chorus, play; Bridge, Verse, Bridge, Chorus, then play the following riffs.

Breakdown
e|---------------------------------------------------------------------------|
B|---------------------------------------------------------------------------|
G|---------------------------------------------------------------------------|
D|---------------------------------------------------------------------------|
A|1-1-1h2p1pm---1-1pm--1h2p1-------------------------------------------------|
E|---------------------------------------------------------------------------|
Repeat x4

e|---------------------------------------------------------------------------|
B|---------------------------------------------------------------------------|
G|---------------------------------------------------------------------------|
D|---------------------------------------------------------------------------|
A|---------------------------------------------------------------------------|
E|7\-0-0-0-1-0pm---0-0-0-1-0pm---0-0-0-1-0pm-----pm0000-000-0000e------------|
Repeat xUnset
Do not repeat the slide after the first time.

e|---------------------------------------------------------------------------|
B|---------------------------------------------------------------------------|
G|---------------------------------------------------------------------------|
D|---------------------------------------------------------------------------|
A|---------------------------------------------------------------------------|
E|pm0-0-0-1-0---00-0-1-0-----------------------------------------------------|

Repeat xUnset
************************************

| /   slide up
| \   slide down
| h   hammer-on
| p   pull-off
| ~   vibrato
| +   harmonic
| x   Mute note
| b   Bend
| pb  Pre-bend
| br  Bend release
| pbr Pre-bend release
| brb Bend release bend
| pm  palm mute
| e   end palm mute
************************************
Suggest correction
Give kudos to tab author, rate the tab!
1 2 3 4 5
comments
print report bad tab
guest
You may want to rate the tab now too:
select rating
Please do not post tabs as comments. Select "correction" instead!