Oops, an error
Loading. Please wait.

Fingersmoran - End Game Bass Tab

523 views 1 this week
1 commentread comment
1 2 3 4 5
please rate
add to favorites
launch autoscroll
font size
0
reset
guitar tuner
Autoscroll
slow
fast
+/-
esc
set tempo
stop
Help us to improve Ultimate-Guitar.com Take our survey!
×
Author
Difficulty
advanced
End Game - Fingersmoran

Tabbed By : ONYX
e-mail: mustangguy700@hotmail.com

Tuning:Standard

Ok this is kind of a motherf***er to tab especially the solo, but im in the right 
so all u fingersmoran fans should get the jist of it

Thumb pluckin part
G|-----77-----------------55-----------------77------------------55-5555-78-|
D|-----------8-------------------5------------------8---------------3333-56-|
A|-0-5---------------0-3----------------0-5-----------------0-3-------------|
E|--------6-----5\------------3-----3\-----------6-----5\-------------------|

G|-----77-----------------55-----------------77------------------55-5555-78-|
D|-----------8-------------------5------------------8---------------3333-56-|
A|-0-5---------------0-3----------------0-5-----------------0-3-------------|
E|--------6-----5\------------3-----3\-----------6-----5\-------------------|

G|-888875--555578--888875-2~~~------------|
D|-666653--333356--666653-0~~~------------|
A|------------------------0~~~------------|
E|----------------------------------------|

G|--------------------------------------------------------------------------|
D|--0--------0------0--------0----555/7-------------------------------------|
A|---32-------32-----32--------32-333/5-------------------------------------|
E|-----3-2-0----320----3-2-0------------------------------------------------|

G|--------------------------------------------------------------------------|
D|--0--------0------0--------0----555/7-------------------------------------|
A|---32-------32-----32--------32-333/5-------------------------------------|
E|-----3-2-0----320----3-2-0------------------------------------------------|

G|------12121212--------12121212121214--------12121212-------12121212119----|
D|------12121212--------12121212121212--------12121212-------12121212119----|
A|--------------------------------------------------------------------------|
E|-1212------------1212------------------1212-----------1212----------------|

(twelves not one's and two's)

G|------12121212--------12121212121214--------12121212-------12121212119----|
D|------12121212--------12121212121212--------12121212-------12121212119----|
A|--------------------------------------------------------------------------|
E|-1212------------1212------------------1212-----------1212----------------|

G|-9-8-7-6-543--2--1~~~-----------------------------------------------------|
D|-9-8-7-6-543--2--1~~~-----------------------------------------------------|
A|--------------------------------------------------------------------------|
E|--------------------------------------------------------------------------|

Thumb pluckin part again
G|-----77-----------------55-----------------77------------------55-5555-78-|
D|-----------8-------------------5------------------8---------------3333-56-|
A|-0-5---------------0-3----------------0-5-----------------0-3-------------|
E|--------6-----5\------------3-----3\-----------6-----5\-------------------|

G|-----77-----------------55-----------------77------------------55-5555-78-|
D|-----------8-------------------5------------------8---------------3333-56-|
A|-0-5---------------0-3----------------0-5-----------------0-3-------------|
E|--------6-----5\------------3-----3\-----------6-----5\-------------------|

G|-888875--555578--888875-2~~~------------|
D|-666653--333356--666653-0~~~------------|
A|------------------------0~~~------------|
E|----------------------------------------|

G|--------------------------------------------------------------------------|
D|--0--------0------0--------0----555/7-------------------------------------|
A|---32-------32-----32--------32-333/5-------------------------------------|
E|-----3-2-0----320----3-2-0------------------------------------------------|

G|--------------------------------------------------------------------------|
D|--0--------0------0--------0----555/7-------------------------------------|
A|---32-------32-----32--------32-333/5-------------------------------------|
E|-----3-2-0----320----3-2-0------------------------------------------------|

G|------12121212--------12121212121214--------12121212-------12121212119----|
D|------12121212--------12121212121212--------12121212-------12121212119----|
A|--------------------------------------------------------------------------|
E|-1212------------1212------------------1212-----------1212----------------|

(twelves not one's and two's...again...)

G|------12121212--------12121212121214--------12121212-------12121212119----|
D|------12121212--------12121212121212--------12121212-------12121212119----|
A|--------------------------------------------------------------------------|
E|-1212------------1212------------------1212-----------1212----------------|

G|-9-8-7-6-543--2--1~~~-----------------------------------------------------|
D|-9-8-7-6-543--2--1~~~-----------------------------------------------------|
A|--------------------------------------------------------------------------|
E|--------------------------------------------------------------------------|


Riff that reapeats until the end
G|-6-22-6-4444---------------------------|
D|-4-00-4-2222---------------------------|
A|---------------------------------------|
E|---------------------------------------|

this is played along (kind of)if u hear it well

G|-18-1414-18-16161616--------------|
D|-16-1212-16-14141414--------------|
A|----------------------------------|
E|----------------------------------|

solo (bear with me)

G|-----------------1414--------------------1416181614--14-------------------|
D|-------1416161416----161416\----------1416----------16--1614--141414\-----|
A|-0/1416--------------------------0/14----------------------16-------------|
E|--------------------------------------------------------------------------|

G|-------------14-----------------------------------------------------------|
D|-----14161416--16141614--14------------------------------14----14----1416-|
A|-0/14------------------16--1614161416--------141614161416--1416--1416-----|
E|-------------------------------------12141214-----------------------------|

G|-----14------14------14--181614-(14p16p18)-7X--141614--14--------14-------|
D|-1416--161416--161416--16----------------------------16--16141416-16161414|
A|--------------------------------------------------------------------------|
E|--------------------------------------------------------------------------|

G|-------------------------------------141618--------14------14------14-----|
D|-14161416------------------------1416------16141416--161416--161416--16---|
A|---------14161416--------14161416-----------------------------------------|
E|-----------------12141214-------------------------------------------------|


G|---16--16-18~~~------181818-----------------------------------------------|
D|-14--14---16~~~------161616-----------------------------------------------|
A|--------------------------------------------------------------------------|
E|--------------------------------------------------------------------------|

Repeat until the end
G|-6-22-6-4444---------------------------|
D|-4-00-4-2222---------------------------|
A|---------------------------------------|
E|---------------------------------------|


There!! well thats how i THINK he does it, i did this all by ear by watching his youtube 
u can judge by urself by visiting this url
  http://www.youtube.com/watch?v=PrYOozGAZCM
...until then any questions or comments just email me or send me a pigeon...i wont 
its safe return though....i do get hungry sumtimes
keep the bass awesome!!-ONYX

(p.s. dont even dare bringin up the solo cuz i know im not 100% on it but hey i tried!!!)


| /  slide up
| \  slide down
| h  hammer-on
| p  pull-off
| ~  vibrato
| +  harmonic
| x  Mute note
===============================================================================
Suggest correction
What's this?
You can suggest a correction to this tab. Community and Mods will review your correction and vote to approve or reject it.
comments
We did not receive enough feedback on this tab! Please rate:
print report bad tab
1 2 3 4 5
1 comment total.
0 reply
vek329 178 wrote on November 15 2009, 08:42 pm

thanks for tabbing this. I was never able to get it right by ear.

guest
You may want to rate the tab now too:
select rating
Please do not post tabs as comments. Select "correction" instead!