Oops, an error
Loading. Please wait.

Finin Obrien - Cold Rain Tab

453 views 1 this week
no commentswrite comment
1 2 3 4 5
please rate
add to favorites
launch autoscroll
font size
0
reset
how to read this tab
guitar tuner
Tab Pro tools
  • play this tab
  • loop segment
  • change instrument
  • show fretboard
  • metronome
×
Best way to learn
"Finin Obrien - Cold Rain"
Autoscroll
slow
fast
+/-
esc
set tempo
stop
Contributor
Difficulty
intermediate
-------------------------------------------------------------------------------
                             COLD RAIN - Snuffels (Finin O'Brien)
-------------------------------------------------------------------------------
Tabbed by: pyro.uk|tOM
Email: tomshacham@hotmail.com

Tuning: Standard

Intro + Verse + Bridge
       
       Em            C               G              D
e|---------------------------------------------------------------------------|
B|-------0---------------1---------------0------------3----------------------|
G|---------0---------------0---------------0------------2--------------------|
D|----2--------------2------------------------------0------------------------|
A|----------------3-------------------2----------0---------------------------|
E|--0------------------------------3-----------------------------------------|

Chorus
  
  Em7              Cadd9           G7             Dsus
e|--0--0---0---0----0--0---0--0----3--3--3--3----2h3--3--3p2--2--------------|
B|--0--0---0h3-0----1--1h3-3--1----0--0--0--0----3----3--3----3--------------|
G|--0--0---0---0----0--0---0--0----0--0--0--0----2----2--2----2--------------|
D|--2--2---2---2----2--2---2--2----0--0--0--0----0----0--0----0--------------|
A|--2--2---2---2----3--3---3--3----2--2--2--2----x----x--x----x--------------|
E|--0--0---0---0----0--0---0--0----3--3--3--3----x----x--x----x--------------|

Instrumental

  Em               Bm             G             Am
e|--0--0--0--0----2--2--2--2----3--3--3--3----5--5--5--5---------------------|
B|--0--0--0--0----3--3--3--3----3--3--3--3----5--5--5--5---------------------|
G|--0--0--0--0----4--4--4--4----4--4--4--4----5--5--5--5---------------------|
D|--2--2--2--2----4--4--4--4----5--5--5--5----7--7--7--7---------------------| X4
A|--2--2--2--2----2--2--2--2----5--5--5--5----7--7--7--7---------------------|
E|--0--0--0--0----2--2--2--2----3--3--3--3----5--5--5--5---------------------|

  Em                 D               Cadd9            Am
e|--7--7h10--7--7----5--5---5--5----0---0--0--0----0--0--0--0----------------|
B|--8--8-----8--8----7--7h8-7--7----1h3-3--3--3----1--1--1--1----------------|
G|--9--9-----9--9----7--7---7--7----0---0--0--0----2--2--2--2----------------|
D|--9--9-----9--9----7--7---7--7----2---2--2--2----2--2--2--2----------------| X4
A|--7--7-----7--7----5--5---5--5----3---3--3--3----0--0--0--0----------------|
E|--7--7-----7--7----5--5---5--5----0---0--0--0----0--0--0--0----------------|

Intro
Verse 1
Bridge
Chorus
Bridge
Verse 2 
Bridge
Chorus
Instrumental
Outro (=Intro/Verse/Bridge)
comments
We did not receive enough feedback on this tab! Please rate:
print report bad tab
1 2 3 4 5
I want to post or [tab]
guest
You may want to rate the tab now too:
select rating
Please do not post tabs as comments. Select "correction" instead!