Oops, an error
Loading. Please wait.

First Choice - Armed And Extremely Dangerous bass

22 views 1 this week
no commentswrite comment
1 2 3 4 5
2 more votes to show rating
add to favorites
×
Save as Personal and add changes to this tab that will be seen only by you. Learn more ›
×
You can save this tab as Personal to edit and correct it or add notes. All changes will be seen only by you. Learn more »
launch autoscroll
font size
0
reset
guitar tuner
edit
Autoscroll
slow
fast
+/-
esc
set tempo
stop
Armed And Extremely Dangerous
First single by U.S.A. disco Girl Group First Choice in 1973. Reached #16
UK charts. Tab by bass50611. This takes me back, great Seventies Disco
Sound.  Bassline as I see it, not exact but very close to original and
It does fit the song.

Intro:
G|-----------|----------------------------------------------|
D|-DRUM ROLL-|--------------3-----------------3---3---3---3-|
A|---START---|-3---3--5--3-------3---3--5--3----------------|
E|-----------|----------------------------------------------|

                                            (Vocals In)
G|---------------------------------------------------------------------|
D|---------------------------------------------------------------------|
A|-3---3-3---3-3---3-3---3-3---3-3---3-3---3-3---3-3---3-3---3-3---3-3-|
E|---------------------------------------------------------------------|

G|--------------------------|
D|-3---3-3--3---------------|
A|-------------x--1--1--1-1-|
E|--------------------------|

Verse 1:                            (Play This Bit x2)
G|-------------------------------------------|
D|-6--6-6--6-6--6-6--6---5--5-5--5-5--5-5--5-|
A|-------------------------------------------|
E|-------------------------------------------|

G|---------------------------------------------------------------|
D|------------3--3-3--3-------------3--3-3---3--3-3--3-3--3-3--3-|
A|-3--3-3--3-------------3--3-3--3-------------------------------|
E|---------------------------------------------------------------|

G|------------------------|
D|------------------------|
A|-1--1-1--1--------------|
E|------------3--3-3--3-3-|

Chorus 1:
G|--------------------------------------------------------------------|
D|----------------------3--3-3--3---x--5-5---5-5----------------------|
A|-3--3-3--3-3--3-3--3----------------------------3--3-3--3-3--3-3--3-|
E|--------------------------------------------------------------------|

G|--------------------------|
D|-3---3-3--3---------------|
A|-------------x--1--1--1-1-|
E|--------------------------|

Verse 2:                            (Play This Bit x2)
G|-------------------------------------------|
D|-6--6-6--6-6--6-6--6---5--5-5--5-5--5-5--5-|
A|-------------------------------------------|
E|-------------------------------------------|

G|---------------------------------------------------------------|
D|------------3--3-3--3-------------3--3-3---3--3-3--3-3--3-3--3-|
A|-3--3-3--3-------------3--3-3--3-------------------------------|
E|---------------------------------------------------------------|

G|------------------------|
D|------------------------|
A|-1--1-1--1--------------|
E|------------3--3-3--3-3-|

Chorus 2s:
G|--------------------------------------------------------------------|
D|----------------------3--3-3--3---x--5-5---5-5----------------------|
A|-3--3-3--3-3--3-3--3----------------------------3--3-3--3-3--3-3--3-|
E|--------------------------------------------------------------------|

                    (Break)
G|---------------------|
D|-3---3-3--3----------|
A|-------------x--1--1-|
E|---------------------|

Bridge:
G|------------------------------------------------------------------------|
D|--------------3------0--1--3--1--0-------------------3----5---5----5--5-|
A|-3---3--5--3-------3---------------3-----3---3--5--3--------------------|
E|------------------------------------------------------------------------|

Outro:                              (Repeat To Fade/End)
G|-----------------------------------------------|
D|----------------------3--3-3--3---x--5-5---5-5-|
A|-3--3-3--3-3--3-3--3---------------------------|
E|-----------------------------------------------|



            
            
Suggest correction
Creating personal tab
Creating personal tab
You can edit any tab online and save it as your Personal.

You can edit, replace or remove any tab part or add personal notes – all changes will be seen only by you.

Personal tabs can be accessed anytime from any device, even offline.
Learn more »
Give kudos to tab author, rate the tab!
1 2 3 4 5
comments
print report bad tab
guest
You may want to rate the tab now too:
select rating
Wanna post a correction for this tab? Suggest correction