Oops, an error
Loading. Please wait.

First Rights - As The Rain Falls bass

76 views 1 this week
no commentswrite comment
1 2 3 4 5
2 more votes to show rating
add to favorites
×
Save as Personal and add changes to this tab that will be seen only by you. Learn more ›
×
You can save this tab as Personal to edit and correct it or add notes. All changes will be seen only by you. Learn more »
launch autoscroll
font size
0
reset
guitar tuner
edit
Autoscroll
slow
fast
+/-
esc
set tempo
stop
Author
Difficulty
As the Rain Falls - by First Rights, a solo project.
The song was created on a rainy day as I stared out my front window, about a month after
It's not particularly great, and it's so easy it's boring, but I like the sound of it.
currently writing the lyrics for it. Please, feedback is very appreciated. I have the 
file on my computer if anyone wants to hear it, but I don't know how to convert it to .mp3


G|-7-7-7-7-6-6-6-6-4-4-4-4-3-3-3-3|
D|9-9-9-9-7-7-7-7-5-5-5-5-4-4-4-4-| x2
A|--------------------------------|
E|--------------------------------|

G|7--7--9--9--11-11-7--7|
D|9--9--7--7--9--9--5--5|
A|----------------------| x2
E|----------------------|

G|7--7--9--9--9--9--11-11|
D|9--9--7--7--11-11-9--9-|
A|-----------------------|
E|-----------------------|


G|7--7--9--9--11-11-7--7|
D|9--9--7--7--9--9--5--5|
A|----------------------|
E|----------------------|

And you repeat this 3 times.

            
            
Suggest correction
Creating personal tab
Creating personal tab
You can edit any tab online and save it as your Personal.

You can edit, replace or remove any tab part or add personal notes – all changes will be seen only by you.

Personal tabs can be accessed anytime from any device, even offline.
Learn more »
Give kudos to tab author, rate the tab!
1 2 3 4 5
comments
print report bad tab
guest
You may want to rate the tab now too:
select rating
Wanna post a correction for this tab? Suggest correction