Oops, an error
Loading. Please wait.

Floral - Reasons Left Behind Bass Tab

96 views 1 this week
no commentswrite comment
1 2 3 4 5
please rate
add to favorites
launch autoscroll
font size
0
reset
guitar tuner
Autoscroll
slow
fast
+/-
esc
set tempo
stop
Help us to improve Ultimate-Guitar.com Take our survey!
×
Difficulty
novice
FLORAL // REASONS LEFT BEHIND.

Intro: (note: let notes ring out)
G|------------------------------------------------------------------|
D|------------------------------------------------------------------|
A|------------7-------------------7---------------------------------|
E|------------------------------------------------------------------|

Verse: (note: repeat until bridge) *include slides
G|-----------------------------------------------------------------|
D|-----------------------------------------------------------------|
A|77777------------------------------------------------------------|
E|-----555/88888/222/----------------------------------------------|

Bridge:
G|--------------------------------------------------------------|
D|--------------------------------------------------------------|
A|7--------7----------------------------------------------------|
E|--5/8/2----5/8/2--222-----------------------------------------|

Verse 2:(note: repeat until bridge)
G|--------------------------------------------------------------|
D|--------------------------------------------------------------|
A|77777---------------------------------------------------------|
E|-----555/88888/222/-------------------------------------------|

Bridge 2:
G|--------------------------------------------------------------|
D|--------------------------------------------------------------|
A|7------ X3---7------------------------------------------------|
E|--5/8/2-------5/8/2--222--------------------------------------|

Outro:(note: end sharp on the last note)
G|--------------------------------------------------------------|
D|--------------------------------------------------------------|
A|77777--------------7------------------------------------------|
E|-----555/88888/222/-------------------------------------------|

FLORAL: https://www.facebook.com/FloralBandOfficial?ref=hl
Suggest correction
Give kudos to tab author, rate the tab!
1 2 3 4 5
comments
print report bad tab
guest
You may want to rate the tab now too:
select rating
Please do not post tabs as comments. Select "correction" instead!