Oops, an error
Loading. Please wait.

Forests - Tamago tab

91 views 6 this week
no commentswrite comment
1 2 3 4 5
2 more votes to show rating
add to favorites
×
Save as Personal and add changes to this tab that will be seen only by you. Learn more ›
×
You can save this tab as Personal to edit and correct it or add notes. All changes will be seen only by you. Learn more »
launch autoscroll
font size
0
reset
how to read this tab
guitar tuner
edit
Autoscroll
slow
fast
+/-
esc
set tempo
stop
Author
Difficulty
[Intro]
e|--------------------|---------------|-------------------|------------------|
B|--------------------|---------------|-------------------|------------------|
G|--------------------|---------------|-------------------|------------------|
D|---6-----6--6-6-6-6-|-6-6-6--6-6-6--|--6-----6--6-6-6-6-|-6-6-6--6-6-6-----| ×2
A|---7-----7--7-7-7-7-|-7-7-7--7-7-7--|--7-----7--7-7-7-7-|-7-7-7--7-7-7-----|
E|---0-----0--0-0-0-0-|-0-0-0--0-0-0--|--5-----5--5-5-5-5-|-5-5-5--5-5-5-----|

[Main Riff]
e|--------------------------------|-----7-----7--------7-----7---------------|
B|-----------5h7-------/12--12-12-|--9--9--9--9-----9--9--9--9---------------|
G|-----------------6\4------------|--9--9--9--9-----9--9--9--9---------------|
D|---6----4h6---------------------|--7-----7--------7-----7------------------|
A|---7----------------------------|------------------------------------------|
E|--------------------------------|------------------------------------------|
                                                                              
e|----------------------------|---------------------4h5p4--------------------|
B|-----------5h7-------0---0--|----0---0--------5---------5------------------|
G|-----------------6\4---4----|--1---1---1/6--6---6--------------------------|
D|---6----4h6-----------------|----------------------------------------------|
A|---7------------------------|----------------------------------------------|
E|----------------------------|----------------------------------------------|
                                                                               
e|--------------------------------|-----7-----7--------7-----7---------------|
B|-----------5h7-------/12--12-12-|--9--9--9--9-----9--9--9--9---------------|
G|-----------------6\4------------|--9--9--9--9-----9--9--9--9---------------|
D|---6----4h6---------------------|--7-----7--------7-----7------------------|
A|---7----------------------------|------------------------------------------|
E|--------------------------------|------------------------------------------|

e|----------------------------|-------------------4/7\4---0------------------|
B|-----------5h7-------0---0--|----0---0---------5--------0------------------|
G|-----------------6s4---4----|--\1---1---1----6-----------------------------|
D|---6----4h6-----------------|-------------/7-------------------------------|
A|---7------------------------|----------------------------------------------|
E|----------------------------|----------------------------------------------|

[Verse 1] (Never mind let's get some coffee...)
e|--------------------------------|-----7-----7--------7-----7---------------|
B|-----------5h7-------/12--12-12-|--9--9--9--9-----9--9--9--9---------------|
G|-----------------6\4------------|--9--9--9--9-----9--9--9--9---------------|
D|---6----4h6---------------------|--7-----7--------7-----7------------------|
A|---7----------------------------|------------------------------------------|
E|--------------------------------|------------------------------------------|
                                                                              
e|----------------------------|------x-x---x-----x-x---x---------------------|
B|-----------5h7-------0---0--|------x-x---x-----x-x---x---------------------|
G|-----------------6\4---4----|--1---x-x---x-----x-x---x---------------------|
D|---6----4h6-----------------|------x-x---x-----x-x---x---------------------|
A|---7------------------------|------x-x---x-----x-x---x---------------------|
E|----------------------------|------x-x---x-----x-x---x---------------------|

e|--------------------------------|-----7-----7--------7-----7---------------|
B|-----------5h7-------/12--12-12-|--9--9--9--9-----9--9--9--9---------------|
G|-----------------6\4------------|--9--9--9--9-----9--9--9--9---------------|
D|---6----4h6---------------------|--7-----7--------7-----7------------------|
A|---7----------------------------|------------------------------------------|
E|--------------------------------|------------------------------------------|

e|----------------------------|-------------------4/7\4---0------------------|
B|-----------5h7-------0---0--|----0---0---------5--------0------------------|
G|-----------------6s4---4----|--\1---1---1----6-----------------------------|
D|---6----4h6-----------------|-------------/7-------------------------------|
A|---7------------------------|----------------------------------------------|
E|----------------------------|----------------------------------------------|

[Verse 2] (I hate nightmares...)
e|----------------------------------|----------------------------------------|
B|---12-12h14p12--------------12----|-------------------------12-------------|
G|---------------11h13p11--/13--13--|---9-9h11p9-------9h11/13--13-----------|
D|----------------------------------|--------------9h11----------------------|
A|----------------------------------|----------------------------------------|
E|----------------------------------|----------------------------------------|
                                                                               ×3
e|----------------12----------------|----------------------------------------|
B|---12-12h14p12----14p12--12h14----|----------------12---------12-12-12-12--|
G|-----------------------13-----13--|--13-13h14p13-----13-------13-13-13-13--|
D|----------------------------------|--------------------14/16--14-14-14-14--|
A|----------------------------------|----------------------------------------|
E|----------------------------------|----------------------------------------|

[Verse 3] (Staying up late...)
                       P.M.
e|---------|--------|-----------|---------|---------|------------------------|
B|---------|--------|-----------|---------|---------|------------------------|
G|---------|--------|-----------|---------|---------|------------------------|
D|---6-6-6-|--6-6-6-|---6-6-6-6-|-6-6-6-6-|-6-6-6-6-|-6-6-6-6----------------|
A|---7-7-7-|--7-7-7-|---7-7-7-7-|-7-7-7-7-|-7-7-7-7-|-7-7-7-7----------------|
E|---5-5-5-|--5-5-5-|---0-0-0-0-|-0-0-0-0-|-0-0-0-0-|-0-0-0-0----------------|

                       P.M.
e|---------|--------|-----------|---------|---------|------------------------|
B|---------|--------|-----------|---------|---------|------------------------|
G|---------|--------|-----------|---------|---------|------------------------|
D|---6-6-6-|--6-6-6-|---6-6-6-6-|-6-6-6-6-|-6-6-6-6-|-6-6-6-6----------------|
A|---7-7-7-|--7-7-7-|---7-7-7-7-|-7-7-7-7-|-7-7-7-7-|-7-7-7-7----------------|
E|---5-5-5-|--5-5-5-|---0-0-0-0-|-0-0-0-0-|-0-0-0-0-|-0-0-0-0----------------|

[Guitar Solo]
e|-----0---0---0---0---0---0---0---0-|----0---0---0---0---0---0---0---0------|
B|---12--12--12--12--12--12--12--12--|--9---9---9---9---9---9---9---9--------|
G|-----------------------------------|---------------------------------------|
D|-----------------------------------|---------------------------------------|
A|-----------------------------------|---------------------------------------|
E|-----------------------------------|---------------------------------------|

e|--------------------------|------------------------------------------------|
B|---7h9--------------------|--7h9-------------------------------------------|
G|-------6h9----------------|------6h9---11-11---13--------------------------|
D|-----------7h9------------|------------x--x----x---------------------------|
A|---------------7h9--11/14-|------------9--9----11--------------------------|
E|--------------------------|------------------------------------------------|

e|-----0---0---0---0---0---0---0---0-|----0---0---0---0---0---0----0----0----|
B|---12--12--12--12--12--12--12--12--|--9---9---9---9--\7---7--/14---14------|
G|-----------------------------------|---------------------------------------|
D|-----------------------------------|---------------------------------------|
A|-----------------------------------|---------------------------------------|
E|-----------------------------------|---------------------------------------|

e|--------------------------|------------------------------------------------|
B|---7h9--------------------|------------------------------------------------|
G|-------6h9----------------|---------11-11---11/13--13--13------------------|
D|-----------7h9------------|---------x--x----x--x---x---x-------------------|
A|---------------7h9--11/14-|---------9--9----9//11--11--11------------------|
E|--------------------------|------------------------------------------------|

[Chorus] (You asked if I love you...)
e|-----0---0---0---0---0---0---0---0-|----0---0---0---0---0---0---0---0------|
B|---12--12--12--12--12--12--12--12--|--9---9---9---9---9---9---9---9--------|
G|-----------------------------------|---------------------------------------|
D|-----------------------------------|---------------------------------------|
A|-----------------------------------|---------------------------------------|
E|-----------------------------------|---------------------------------------|

e|--------------------|------------------------------------------------------|
B|--------------------|------------------------------------------------------|
G|---9--9---9-9-9-9---|----11-11--13--13--13/14------------------------------|
D|---x--x---x-x-x-x---|----x--x---x---x---x----------------------------------|
A|---7--7---7-7-7-7---|----9--9---11--11--11/12------------------------------|
E|--------------------|------------------------------------------------------|

e|-----0---0---0---0---0---0---0---0-|----0---0---0---0---0---0----0----0----|
B|---12--12--12--12--12--12--12--12--|--9---9---9---9--\7---7--/14---14------|
G|-----------------------------------|---------------------------------------|
D|-----------------------------------|---------------------------------------|
A|-----------------------------------|---------------------------------------|
E|-----------------------------------|---------------------------------------|

e|--------------------|------------------------------------------------------|
B|--------------------|------------------------------------------------------|
G|---9--9---9-9-9-9---|----11-11--13--13--13/14------------------------------|
D|---x--x---x-x-x-x---|----x--x---x---x---x----------------------------------|
A|---7--7---7-7-7-7---|----9--9---11--11--11/12------------------------------|
E|--------------------|------------------------------------------------------|

e|------------------|--------------------------------------------------------|
B|------------------|--------------------------------------------------------|
G|---9~----9/11-11~-|--11/13--13~~~------------------------------------------|
D|---x-----x-x--x---|--x--x---x----------------------------------------------|
A|---7~----7/9--9~--|--9//11--11~~~------------------------------------------|
E|------------------|---------0----------------------------------------------|

[Bridge] (I fell in love once or twice...)
e|----------------------0----0---------|----------------------0----0---------|
B|---7h9-------------14---12---9/12\9--|---7h9-------------14---12---9/12\12-|
G|--------6h9--------------------------|--------6h9--------------------------|
D|-------------7h9---------------------|-------------7h9---------------------|
A|---0~--------------------------------|---0~--------------------------------|
E|-------------------------------------|-------------------------------------|

e|----------------------------------|----------------------------------------|
B|---7h9p7--7-----------------------|------7h9p7--7--------------------------|
G|---------9--6h9-------------------|------------9--6h9----------------------|
D|--------------------7h9-7h9-------|------------------------7h9-7h9---------|
A|----------------7h9---------------|-------------------7h9------------------|
E|---0------------------------------|------0---------------------------------|
                                                                               ×2
e|----------------------0----0---------|---------------------0----0----0---0-|
B|---7h9-------------14---12---9/12\9--|---7h9------------14---17---14---12--|
G|--------6h9--------------------------|--------6h9--------------------------|
D|-------------7h9---------------------|-------------7h9---------------------|
A|---0~--------------------------------|---0~--------------------------------|
E|-------------------------------------|-------------------------------------|

e|-----------------------------|---------------------------------------------|
B|---------------------12------|---------------------------------------------|
G|---13~---11~---9~------13-11-|--13~---11~---9~-----------------------------|
D|-----------------------------|---------------------------------------------|
A|-----------------------------|---------------------------------------------|
E|-----------------------------|---------------------------------------------|

[Chorus] (You asked if I love you...)
e|-----0---0---0---0---0---0---0---0-|----0---0---0---0---0---0---0---0------|
B|---12--12--12--12--12--12--12--12--|--9---9---9---9---9---9---9---9--------|
G|-----------------------------------|---------------------------------------|
D|-----------------------------------|---------------------------------------|
A|-----------------------------------|---------------------------------------|
E|-----------------------------------|---------------------------------------|

e|--------------------|------------------------------------------------------|
B|--------------------|------------------------------------------------------|
G|---9--9---9-9-9-9---|----11-11--13--13--13/14------------------------------|
D|---x--x---x-x-x-x---|----x--x---x---x---x----------------------------------|
A|---7--7---7-7-7-7---|----9--9---11--11--11/12------------------------------|
E|--------------------|------------------------------------------------------|

e|-----0---0---0---0---0---0---0---0-|----0---0---0---0---0---0----0----0----|
B|---12--12--12--12--12--12--12--12--|--9---9---9---9--\7---7--/14---14------|
G|-----------------------------------|---------------------------------------|
D|-----------------------------------|---------------------------------------|
A|-----------------------------------|---------------------------------------|
E|-----------------------------------|---------------------------------------|

e|--------------------|------------------------------------------------------|
B|--------------------|------------------------------------------------------|
G|---9--9---9-9-9-9---|----11-11--13--13--13/14------------------------------|
D|---x--x---x-x-x-x---|----x--x---x---x---x----------------------------------|
A|---7--7---7-7-7-7---|----9--9---11--11--11/12------------------------------|
E|--------------------|------------------------------------------------------|

[Final Riff]
e|--------------------------------|------------------------------------------|
B|-----------5h7-------/12--12-12-|--9--9--9--9-----9--9--9--9-----9---------|
G|-----------------6\4------------|--9--9--9--9-----9--9--9--9-----9---------|
D|---6----4h6---------------------|--7--7--7--7-----7--7--7--7-----7---------|
A|---7----------------------------|------------------------------------------|
E|--------------------------------|------------------------------------------|


************************************

| h  Hammer-on
| /  Slide up
| \  Slide down
| p  Pull-off
| x  Dead note
| ~  Vibrato
| s  Slide

************************************
Suggest correction
Creating personal tab
Creating personal tab
You can edit any tab online and save it as your Personal.

You can edit, replace or remove any tab part or add personal notes – all changes will be seen only by you.

Personal tabs can be accessed anytime from any device, even offline.
Learn more »
Give kudos to tab author, rate the tab!
1 2 3 4 5
comments
print report bad tab
guest
You may want to rate the tab now too:
select rating
Wanna post a correction for this tab? Suggest correction