Oops, an error
Loading. Please wait.

Fragmentd - Balloons In My Basket Tab

87 views 1 this week
1 commentread comment
1 2 3 4 5
please rate
add to favorites
launch autoscroll
font size
0
reset
how to read this tab
guitar tuner
Autoscroll
slow
fast
+/-
esc
set tempo
stop
Help us to improve Ultimate-Guitar.com Take our survey!
×
Author
Difficulty
novice
|-----1-1-0---| |-------1-1-0---|
|---1-------1-| |---1---------1-|
|-0-----------| |-0---0---------|
|-------------| |---------------|
|-------------| |---------------|
|-------------| |---------------|

|-----1-1-0---| |-0-1-0-1-0-3-1-0-|
|---1-------1-| |-----------------|
|-0-----------| |-----------------|
|-------------| |-----------------|
|-------------| |-----------------|
|-------------| |-----------------|
     
Am        C      Am   C     Am
I used to hide myself away
C               G              C
From the cloudy skies of gray

Am       C         Am     C         Am
I didn't laugh - I didn't know how
C                G            C
But all that's behind me now

Am        C      Am         C      Am
No clouds today, the sky is clear
C             G                   C
Just laugh to make them disappear
Am             C        Am     C
I was going to bring cupcakes
Am    C             G      C
But I ate them all, so...

Am      C       Am
I put balloons
      C       Am 
in my basket
C                G           C
And watched them float away
Am          C         Am
I hope that it fills 
         C         Am
you with laughter
    C           G           C
And sweeps your fears away
Am      C     
I put balloons
      C       Am
in my basket
C                 G        C
It usually gets a laugh or two
Am        C        Am     C         Am
It's more fun when it's unexpected
             C     G        C
I threw this party just for you

Am          C        Am      C      Am 
I know that I'm hard to understand
C                      G     C
Sometimes I don't even get myself
    Am          C    Am          C      Am
But where's the fun, thinking so hard?
              C           G     
Let's just go roll on the ground

        C                             Am
There's lots of other things that I'd rather do
C                     Am
Eating lots of sugary things with you
C                     Am
Ice cream, candy, pie and chocolate rain
C                 G
Ignore the crowd, they just think we're insane

C                           Am
Run into the forest just to laugh at the trees
C                       Am
Then run back out while giggling at the ghostly
C                            Am
There's the evil enchantress who does evil dances
    C                              G
And when you look deep in her eyes she puts you in the punch bowl

Am      C       Am
I put balloons
      C       Am 
in my basket
C                G           C
And watched them float away
Am          C         Am
I hope that it fills 
         C         Am
you with laughter
    C           G           C
And sweeps your fears away
Am      C     
I put balloons
      C       Am
in my basket
C                 G        C
It usually gets a laugh or two
Am        C        Am     C         Am
It's more fun when it's unexpected
             C     G        C
I threw this party just for you

Am            C
I may seem so very crazy
D                            Am          C
When I say my tail makes the future less hazy
Am                             C         
But come along with me and I'm sure you'll find
          D                              Am      C
Falling pianos won't get you when you're right behind me

Am
All it really takes is a cup of flour
C
And suddenly you're going 90 MPH
D
Everypony thinks I'm annoying sometimes
             Am                   C
But they all agree my parties are really fun times

Am
Learning how to laugh at your flaws is part of the fun
C
But I don't laugh at anyone
    D
I'm energetic, sympathetic, there when you need me
          Am                          C
And silly ponies who don't listen get eaten by the parasprites

Am
Candy, cakes and pies, oh my
C
Where were you when I was kickin' it with Flutterguy?
D
With a twitcha-twitch-twitch, Twi fell into a ditch
      Am                         C
I got knocked into a bush with a bump from Flutterbitch

Am
I wouldn't trade my sense of humor
C
For all the sugar in the world
D
Cause I'm the partyingest pony in town
           Am                   C <---(One strum)         
Stick with me and I'll show you rock that frown upside down


Am      C       Am
I put balloons
      C       Am 
in my basket
C                G           C
And watched them float away
Am          C         Am
I hope that it fills 
         C         Am
you with laughter
    C           G           C
And sweeps your fears away
Am      C     
I put balloons
      C       Am
in my basket
C                 G        C
It usually gets a laugh or two
Am        C        Am     C         Am
It's more fun when it's unexpected
             C     G        C
I threw this party just for you
Suggest correction
Give kudos to tab author, rate the tab!
1 2 3 4 5
comments
print report bad tab
1 comment total.
0 reply
paxlator.64 10 wrote on May 10 2014, 06:39 pm, edited at 06:44 pm

Augh, stupid format. Sorry, this is what I meant to post:

|-----1-1-0---| |-----1-1--0--|
|---1--------1-| |--1---------1-|
|-0-------------| |---------------|
|----------------| |---------------|
|----------------| |---------------|
|----------------| |---------------|

|------1-1-0---| |-----1-1-0-1-3---|
|----1-------1-| |--1-----------------|
|-0-------------| |--------------------|
|----------------| |---------------------|
|----------------| |---------------------|
|----------------| |---------------------|

|-----1-1-0---| |-------1-1-0----|
|---1--------1-| |-1-3-1-------1--|
|-0-------------| |-------------------|
|----------------| |-------------------|
|----------------| |-------------------|
|----------------| |-------------------|

|-----1-1-0---| |-0-1-0-1-0-3-1-0-|
|---1-------1--| |-----------------------|
|-0-------------| |-----------------------|
|----------------| |-----------------------|
|----------------| |-----------------------|
|----------------| |-----------------------|

guest
You may want to rate the tab now too:
select rating
Wanna post a correction for this tab? Suggest correction