Oops, an error
Loading. Please wait.

Francis Dovedio - Watching Them Cry tab

10 views 1 this week
no commentswrite comment
1 2 3 4 5
2 more votes to show rating
add to favorites
×
Save as Personal and add changes to this tab that will be seen only by you. Learn more ›
×
You can save this tab as Personal to edit and correct it or add notes. All changes will be seen only by you. Learn more »
launch autoscroll
font size
0
reset
how to read this tab
guitar tuner
edit
Autoscroll
slow
fast
+/-
esc
set tempo
stop
Author
Difficulty
Finger Picking: 


[Verse 1]

 A                          D
There is a man lives in the desert
A                        E
With long ears and wider eyes
A                         D
And they say he's always watchin'
        A        E          A
But he can't do nothin' but cry.

A                         D
And the children they're see'in
A                   E
Their mommies and daddies die
A                  D
And the people are hidin'
       A        E          A
From somethin' they can't find.
D                            A
But the man just sits there watchin'
E                          A
Cuz he can't do nothin but cry.


[Guitar Solo]

     A                                  D
e|-------------------------------------------------2-------3--2--0---2-------|
B|---------0------3-----2-------------------3----------3---------------------|
G|-2--------------------------------0-----------2-----------------------0----|
D|----2--------2-------------0---2-------------------------------------------|
A|---------------------------------------------------------------------------|
E|---------------------------------------------------------------------------|

     A                                   A   Begin strumming: A D A E
e|---------------------------------------0-----------------------------------|
B|---------0------3-----2----------------2-----------------------------------|
G|-2--------------------------------0----2-----------------------------------|
D|----2--------2-------------0---2-------2-----------------------------------|
A|---------------------------------------0-----------------------------------|
E|---------------------------------------X-----------------------------------|

Strumming: 


[Verse 2]

A                      D
There's a man lives in China
A                      E
With a big belly and a bigger mind
A                       D
And though he found his freedom
A                       E
It's nothin but a waste of time. 
A                      D
Cuz he just sits there watchin' 
     A          E          A
And he can't do nothin but cry.

A                     D
And there are people searching
A                    E
For proof no one can deny
A                     D
And there are others dying
     A           E        A
Because it's time they decide.


[Outro]

A                      D
And we all stand there asking'
A                    E
When will these men provide?
A                 D
But we are not understanding
           A           E            D
That they can't do nothing but cry
      A          E           D
No they can't do nothing but cry. 

A D A E

            
            
Suggest correction
Creating personal tab
Creating personal tab
You can edit any tab online and save it as your Personal.

You can edit, replace or remove any tab part or add personal notes – all changes will be seen only by you.

Personal tabs can be accessed anytime from any device, even offline.
Learn more »
Give kudos to tab author, rate the tab!
1 2 3 4 5
comments
print report bad tab
guest
You may want to rate the tab now too:
select rating
Wanna post a correction for this tab? Suggest correction