Oops, an error
Loading. Please wait.

Frank Wilson - Do I Love You Indeed I Do bass

61 views 6 this week
no commentswrite comment
1 2 3 4 5
2 more votes to show rating
add to favorites
×
Save as Personal and add changes to this tab that will be seen only by you. Learn more ›
×
You can save this tab as Personal to edit and correct it or add notes. All changes will be seen only by you. Learn more »
launch autoscroll
font size
0
reset
guitar tuner
edit
Autoscroll
slow
fast
+/-
esc
set tempo
stop
Do I Love You (Indeed I Do)
This very rare track by Frank Wilson was released on one of Motown’s 
Subsidiary record labels 1965. Re-released in 1979 to please the Northern 
Soul Scene. Tab by bass50611.  Not exact to original, more of a 
Simplified version but it does fit the song. Currently used in 
“The Happy Egg” TV Ad.

PLAY QUAVERS THROUGHOUT THE SONG

Intro:             (Bass in at 0.07secs)
G|-----------------|----------------------------------|
D|-GUITAR/KEYBOARD-|----------------------------------|
A|-----START-------|-3-3-3-3-3-3-3-3--3-3-3-3-3-3-3-3-|
E|-----------------|----------------------------------|

G|-------------------------------------------------------------|
D|-----3-------3----------------------3-------3----------------|
A|-3-5---5-3-5--------1-------1---3-5---5-3-5--------1-------1-|
E|----------------1-3---3-1-3--------------------1-3---3-1-3---|

Verse 1:                                               (Play This x2)
G|-------------------------------------------------------------|
D|-----3-------3----------------------3-------3----------------|
A|-3-5---5-3-5--------1-------1---3-5---5-3-5--------1-------1-|
E|----------------1-3---3-1-3--------------------1-3---3-1-3---|

Pre-Chorus:
G|----------------------------------2-------2------------------|
D|-----3-------3----------------2-4---4-2-4----7-7-7-7---------|
A|-3-5---5-3-5-------3-------3-------------------------8-8-8-8-|
E|---------------3-5---5-3-5-----------------------------------|

Chorus:
G|-----------------------------------------------------------|
D|-10-10-10-10-10-10-10-10------8---------8------------------|
A|-------------------------8-10---10-8-10--------------------|
E|-------------------------------------------8-8-8-8-8-8-8-8-|

G|----------------------------------------------------|
D|------8---------8-----------------------8---------8-|
A|-8-10---10-8-10--------------------8-10---10-8-10---|
E|-------------------8-8-8-8-8-8-8-8------------------|

Interlude 1:
G|----------------------------------------------------3-------3-|
D|-----3-------3----------------------3-------3---3-5---5-3-5---|
A|-3-5---5-3-5--------1-------1---3-5---5-3-5-------------------|
E|----------------1-3---3-1-3-----------------------------------|

Verse 2:                                               (Play This x2)
G|-------------------------------------------------------------|
D|-----3-------3----------------------3-------3----------------|
A|-3-5---5-3-5--------1-------1---3-5---5-3-5--------1-------1-|
E|----------------1-3---3-1-3--------------------1-3---3-1-3---|

Pre-Chorus:
G|----------------------------------2-------2------------------|
D|-----3-------3----------------2-4---4-2-4----7-7-7-7---------|
A|-3-5---5-3-5-------3-------3-------------------------8-8-8-8-|
E|---------------3-5---5-3-5-----------------------------------|

Chorus:
G|-----------------------------------------------------------|
D|-10-10-10-10-10-10-10-10------8---------8------------------|
A|-------------------------8-10---10-8-10--------------------|
E|-------------------------------------------8-8-8-8-8-8-8-8-|

G|----------------------------------------------------|
D|------8---------8-----------------------8---------8-|
A|-8-10---10-8-10--------------------8-10---10-8-10---|
E|-------------------8-8-8-8-8-8-8-8------------------|

Interlude 2:                                        (Play This Bit x2)
G|----------------------------------------------------3-------3-|
D|-----3-------3----------------------3-------3---3-5---5-3-5---|
A|-3-5---5-3-5--------1-------1---3-5---5-3-5-------------------|
E|----------------1-3---3-1-3-----------------------------------|

G|----------------------------------|
D|----------------------------------|
A|-3-3-3-3-3-3-3-3--3-3-3-3-3-3-3-3-|
E|----------------------------------|

Pre-Chorus:
G|----------------------------------2-------2------------------|
D|-----3-------3----------------2-4---4-2-4----7-7-7-7---------|
A|-3-5---5-3-5-------3-------3-------------------------8-8-8-8-|
E|---------------3-5---5-3-5-----------------------------------|

Chorus:
G|-----------------------------------------------------------|
D|-10-10-10-10-10-10-10-10------8---------8------------------|
A|-------------------------8-10---10-8-10--------------------|
E|-------------------------------------------8-8-8-8-8-8-8-8-|

G|----------------------------------------------------|
D|------8---------8-----------------------8---------8-|
A|-8-10---10-8-10--------------------8-10---10-8-10---|
E|-------------------8-8-8-8-8-8-8-8------------------|

Outro:                                             (Repeat To Fade/End)
G|----------------------------------------------------3-------3-|
D|-----3-------3----------------------3-------3---3-5---5-3-5---|
A|-3-5---5-3-5--------1-------1---3-5---5-3-5-------------------|
E|----------------1-3---3-1-3-----------------------------------|


            
            
Suggest correction
Creating personal tab
Creating personal tab
You can edit any tab online and save it as your Personal.

You can edit, replace or remove any tab part or add personal notes – all changes will be seen only by you.

Personal tabs can be accessed anytime from any device, even offline.
Learn more »
Give kudos to tab author, rate the tab!
1 2 3 4 5
comments
print report bad tab
guest
You may want to rate the tab now too:
select rating
Wanna post a correction for this tab? Suggest correction