Oops, an error
Loading. Please wait.

Frau Doktor - 501 Bass Tab

55 views 1 this week
no commentswrite comment
1 2 3 4 5
please rate
add to favorites
launch autoscroll
font size
0
reset
guitar tuner
Autoscroll
slow
fast
+/-
esc
set tempo
stop
Help us to improve Ultimate-Guitar.com Take our survey!
×
Contributor
eybasti 40
-----------------------------------------------------------------------------
                             Frau Doktor - 501
-----------------------------------------------------------------------------

Tabbed by: eybasti
E-mail: basti_bsa@hotmail.de

Tuning: E-A-D-G

Intro

G|--------------------------------------|
D|--------------------------------------|
A|-------------------77--77--57-7-77-7--|
E|--------------------------7-------7-7-|

3x                           1x
G|-------------------------|------------------------|
D|-------------------------|------------------------|
A|--3-3-3-3----5-5-5-5-----|---77--77--57-7-77-7--5-|
E|-------3-3--------5-5----|----------7-------7-7---|

Verse:
3x
G|-------------------------------------------------------------|
D|-------------------------------------------------------------|
A|-----------------2----2-0----000-----------------------------|
E|-----------3--3-5---3---------------3--5-7-5-----------------|

G|-------------------------------------------------------------------|
D|-------------------------------------------------------------------|
A|---------2----2----3-3-3-3-3---5-5-5-5--5-5-5-5-5-5-5-5-5-5-5...---|
E|---3--3-5---3---3---------3-3--------------------------------------|

Chorus: 

Ist mir egal, wie albern das klingt...

3x                           1x
G|-------------------------|--------------------------------------|
D|-------------------------|--------------------------------------|
A|--3-3-3-3----5-5-5-5-----|-77--77--57-7-77-7--55555555-55555555-|
E|-------3-3--------5-5----|--------7-------7-7-------------------|

                             
G|------------------------|-------------------|
D|------------------------|-------------------|
A|--3-3-3-3----5-5-5-5----|-------------------|
E|-------3-3--------5-5---|--33-333-333-333---|

3x                           1x
G|-------------------------|------------------------|
D|-------------------------|------------------------|
A|--3-3-3-3----5-5-5-5-----|---77--77--57-7-77-7--5-|
E|-------3-3--------5-5----|----------7-------7-7---|


-Verse- 

-Chorus-

G|-------------------------|-------------------|
D|-------------------------|-------------------|
A|--3-3-3-3----5-5-5-5-----|----33-------------|
E|-------3-3--------5-5----|--3----33----------|



Bridge

2x
G|-----------------------------------------------|
D|---2------4------5------7----------------------|
A|-0---0--2---2--3---3--5---7--------------------|
E|-----------------------------------------------|

(Bläser setzen ein)
G|------------------------------------------------|-------------------------|
D|------------------------------------------------|-------------------------|
A|-0-0-0000----2-2-2222-----3-3-33333--5-5-5555---|-5-5-5555--5-5-5555-...--|
E|------------------------------------------------|-------------------------|

G|-------------------------|------------------------|
D|-------------------------|------------------------|
A|--3-3-3-3----5-5-5-5-----|---77--77--57-7-77-7--5-|
E|-------3-3--------5-5----|----------7-------7-7---|

3x                           1x
G|-------------------------|-----------|
D|-------------------------|-----------|
A|--3-3-3-3----5-5-5-5-----|-2-0-------|
E|-------3-3--------5-5----|-----3-----|
comments
We did not receive enough feedback on this tab! Please rate:
print report bad tab
1 2 3 4 5
I want to post or [tab]
guest
You may want to rate the tab now too:
select rating
Please do not post tabs as comments. Select "correction" instead!