Oops, an error
Loading. Please wait.

Frog Leap Studios - Exs And Ohs tab

388 views 1 this week
1 commentread comment
1 2 3 4 5
x 3
add to favorites
×
Save as Personal and add changes to this tab that will be seen only by you. Learn more ›
×
You can save this tab as Personal to edit and correct it or add notes. All changes will be seen only by you. Learn more »
launch autoscroll
font size
0
reset
how to read this tab
guitar tuner
edit
Autoscroll
slow
fast
+/-
esc
set tempo
stop
-------------------------------------------------------------------------------------
                             Ex's And Oh's - Frog Leaps Studios
-------------------------------------------------------------------------------------
Tabbed by: Bart Baart

Tuning: Drop A


[VERSE ONE] (play 2x)
b |---------------|           |----------------|
f#|---------------|           |----------------|
d |---------------|           |------4-4-4-4-4-|
a |-7---7-2--2-5--|           |-2-2--4-4-4-4-4-|
e |-7---7-2--2-5--|           |-2-2--2-2-2-2-2-|
a |-7---7-2--2-5--| REPEAT 8X |-2-2------------| REPEAT 2x


[PRE-CHORUS] (palm mute the power chord on the second fret)
b |---------------|           |-----------|
f#|---------------|           |-----------|
d |---------------|           |-----------|
a |-x-x-x--x-x-x--|           |-7\--------|
e |-x-x-x--x-x-x--|           |-7\--------|
a |-x-x-x--x-x-x--| REPEAT 6X |-7\--------|


[CHORUS] (play 2x)
b |-------------------|--------------|--------------|--------------|
f#|-------------------|--------------|--------------|--------------|
d |-------------------|--------------|--------------|--------------|
a |-10-10----10-10-10-|-5-5----5-5-5-|-7-7----7-7-7-|-2-2----2-2-2-|
e |-10-10----10-10-10-|-5-5----5-5-5-|-7-7----7-7-7-|-2-2----2-2-2-|
a |-10-10----10-10-10-|-5-5----5-5-5-|-7-7----7-7-7-|-2-2----2-2-2-|

b |-------------------|--------------|--------------|--------------|
f#|-------------------|--------------|--------------|--------------|
d |-------------------|--------------|--------------|--------------|
a |-10-10----10-10-10-|-5-5----5-5-5-|-0-0----0-0-0-|-3-3----3-3-3-|
e |-10-10----10-10-10-|-5-5----5-5-5-|-0-0----0-0-0-|-3-3----3-3-3-|
a |-10-10----10-10-10-|-5-5----5-5-5-|-0-0----0-0-0-|-3-3----3-3-3-|


[VERSE ONE]


[PRE-CHORUS]


[CHORUS]


[BRIDGE/GUITAR BREAKDOWN]
b |-----------------|-----------------|-----------------|----------|
f#|-----------------|-----------------|-----------------|----------|
d |-----------------|-----------------|-----------------|----------|
a |-5-7-5-7-5-7-5-7-|-5-7-5-7-5-7-5-7-|-5-7-5-7-5-7-5-7-|-----5----|
e |-5-7-5-7-5-7-5-7-|-5-7-5-7-5-7-5-7-|-5-7-5-7-5-7-5-7-|-----5----|
a |-5-7-5-7-5-7-5-7-|-5-7-5-7-5-7-5-7-|-5-7-5-7-5-7-5-7-|-----5----| REPEAT 4X


b |--------------|--------------|--------------|--------------|
f#|--------------|--------------|--------------|--------------|
d |--------4-4-4-|--------------|--------4-4-4-|--------------|
a |-2-2----4-4-4-|-5-5----5-5-5-|-2-2----4-4-4-|-5-5----x-x-x-|
e |-2-2----2-2-2-|-5-5----5-5-5-|-2-2----2-2-2-|-5-5----x-x-x-|
a |-2-2----------|-5-5----5-5-5-|-2-2----------|-5-5----x-x-x-|

b |--------------|--------------|--------------|-----------------|
f#|--------------|--------------|--------------|-----------------|
d |--------4-4-4-|--------------|--------4-4-4-|-----------------|
a |-2-2----4-4-4-|-5-5----5-5-5-|-2-2----4-4-4-|-0-0-0-0-3-3-3-3-|
e |-2-2----2-2-2-|-5-5----5-5-5-|-2-2----2-2-2-|-0-0-0-0-3-3-3-3-|
a |-2-2----------|-5-5----5-5-5-|-2-2----------|-0-0-0-0-3-3-3-3-| REPEAT 3X


b |--------------|--------------|--------------|      |---------------|
f#|--------------|--------------|--------------|      |---------------|
d |--------4-4-4-|--------------|--------4-4-4-|      |---------------|
a |-2-2----4-4-4-|-5-5----5-5-5-|-2-2----4-4-4-|      |-0-0-0-3-3-3---|
e |-2-2----2-2-2-|-5-5----5-5-5-|-2-2----2-2-2-|      |-0-0-0-3-3-3---|
a |-2-2----------|-5-5----5-5-5-|-2-2----------|      |-0-0-0-3-3-3---|


b |---------------|---------------|-------------|-------------|
f#|---------------|---------------|-------------|-------------|
d |---------------|---------------|-------------|-------------|
a |-0-0-0-3-3-3---|-0-0-0-3-3-3---|-x--x--x--x--|-x--x--x--x--|
e |-0-0-0-3-3-3---|-0-0-0-3-3-3---|-x--x--x--x--|-x--x--x--x--|
a |-0-0-0-3-3-3---|-0-0-0-3-3-3---|-x--x--x--x--|-x--x--x--x--|


[CHORUS] (Don't play the 10th power chord the first time)
b |---------|--------------|--------------|--------------|
f#|---------|--------------|--------------|--------------|
d |---------|--------------|--------------|--------------|
a |---------|-5-5----5-5-5-|-7-7----7-7-7-|-2-2----2-2-2-|
e |---------|-5-5----5-5-5-|-7-7----7-7-7-|-2-2----2-2-2-|
a |---------|-5-5----5-5-5-|-7-7----7-7-7-|-2-2----2-2-2-|

b |-------------------|--------------|--------------|--------------|
f#|-------------------|--------------|--------------|--------------|
d |-------------------|--------------|--------------|--------------|
a |-10-10----10-10-10-|-5-5----5-5-5-|-0-0----0-0-0-|-3-3----3-3-3-|
e |-10-10----10-10-10-|-5-5----5-5-5-|-0-0----0-0-0-|-3-3----3-3-3-|
a |-10-10----10-10-10-|-5-5----5-5-5-|-0-0----0-0-0-|-3-3----3-3-3-|

b |-------------------|--------------|--------------|--------------|
f#|-------------------|--------------|--------------|--------------|
d |-------------------|--------------|--------------|--------------|
a |-10-10----10-10-10-|-5-5----5-5-5-|-7-7----7-7-7-|-2-2----2-2-2-|
e |-10-10----10-10-10-|-5-5----5-5-5-|-7-7----7-7-7-|-2-2----2-2-2-|
a |-10-10----10-10-10-|-5-5----5-5-5-|-7-7----7-7-7-|-2-2----2-2-2-|

b |-------------------|--------------|--------------|--------------|
f#|-------------------|--------------|--------------|--------------|
d |-------------------|--------------|--------------|--------------|
a |-10-10----10-10-10-|-5-5----5-5-5-|-0-0----0-0-0-|-3-3----3-3-3-|
e |-10-10----10-10-10-|-5-5----5-5-5-|-0-0----0-0-0-|-3-3----3-3-3-|
a |-10-10----10-10-10-|-5-5----5-5-5-|-0-0----0-0-0-|-3-3----3-3-3-|


[OUTRO] (simillar to verse one)
b |---------------|           |----------|
f#|---------------|           |----------|
d |---------------|           |----------|
a |-7---7-2--2-5--|           |-7--------|
e |-7---7-2--2-5--|           |-7--------|
a |-7---7-2--2-5--| REPEAT 8X |-7--------|




************************************

| /   slide up
| \   slide down
| h   hammer-on
| p   pull-off
| ~   vibrato
| +   harmonic
| x   Mute note (mostly fret 2)
| b   Bend
| pb  Pre-bend
| br  Bend release
| pbr Pre-bend release
| brb Bend release bend

************************************

            
            
Suggest correction
Creating personal tab
Creating personal tab
You can edit any tab online and save it as your Personal.

You can edit, replace or remove any tab part or add personal notes – all changes will be seen only by you.

Personal tabs can be accessed anytime from any device, even offline.
Learn more »
Give kudos to tab author, rate the tab!
1 2 3 4 5
comments
print report bad tab
1 comment total.
0 reply
daniels_zand1 10 Nov 15, 2016 04:31 PM

make more tabs please! Love me like you do, firework, titanium.. teach me how to play these :D

guest
You may want to rate the tab now too:
select rating
Wanna post a correction for this tab? Suggest correction