Oops, an error
Loading. Please wait.

Frog Leap Studios - Stressed Out tab

136 views 3 this week
no commentswrite comment
1 2 3 4 5
3 more votes to show rating
add to favorites
×
Save as Personal and add changes to this tab that will be seen only by you. Learn more ›
×
You can save this tab as Personal to edit and correct it or add notes. All changes will be seen only by you. Learn more »
launch autoscroll
font size
0
reset
how to read this tab
guitar tuner
edit
Autoscroll
slow
fast
+/-
esc
set tempo
stop
Tuning: Drop A

[Intro]
B |--------------|--------------|-------------|-------------|
F#|--------------|--------------|-------------|-------------|
D |--------------|--------------|-------7---7-|-------7---7-|
A |-------8----8-|-------5----5-|----7----7---|----7----7---|
E |----8-----8---|----5-----5---|-5-----------|-5-----------|
A |-8------------|-5------------|-------------|-------------|

B |--------------|--------------|----------|------------|
F#|--------------|--------------|----------|------------|
D |--------------|--------------|-7--------|------------|
A |-------8----8-|-------5----5-|-7--------|-----12\----|
E |----8-----8---|----5-----5---|-5--------|-----12\----|
A |-8------------|-5------------|----------|-----12\----|

[Verse]
B |--------------|--------------|--------------|--------------|
F#|--------------|--------------|--------------|--------------|
D |--------------|--------------|--------------|--------------|
A |-8--8--8--8-8-|-5--5--5--5-5-|-0--0--0--0-0-|-0--0--0--7-7-|
E |-8--8--8--8-8-|-5--5--5--5-5-|-0--0--0--0-0-|-0--0--0--7-7-|
A |-8--8--8--8-8-|-5--5--5--5-5-|-0--0--0--0-0-|-0--0--0--7-7-| (x2)

   PM
B |--------------|--------------|--------------|--------------|
F#|--------------|--------------|--------------|--------------|
D |--------------|--------------|--------------|--------------|
A |-8--8--8--8-8-|-5--5--5--5-5-|-0--0--0--0-0-|-0--0--0--7-7-|
E |-8--8--8--8-8-|-5--5--5--5-5-|-0--0--0--0-0-|-0--0--0--7-7-|
A |-8--8--8--8-8-|-5--5--5--5-5-|-0--0--0--0-0-|-0--0--0--7-7-| (x2)

B |--------------|--------------|--------------|----------------|
F#|--------------|--------------|--------------|----------------|
D |--------------|--------------|--------------|----------------|
A |-8--8--8--8-8-|-5--5--5--5-5-|-0--0--0--0-0-|-0--0--0--7-7-|
E |-8--8--8--8-8-|-5--5--5--5-5-|-0--0--0--0-0-|-0--0--0--7-7-|
A |-8--8--8--8-8-|-5--5--5--5-5-|-0--0--0--0-0-|-0--0--0--7-7-| (x2)

[Pre-Chorus]
B |----------|----------|----------|----------|
F#|----------|----------|----------|----------|
D |----------|----------|-7--------|----------|
A |-8--------|-7--------|----------|-7--------|
E |----------|----------|-5--------|----------|
A |-8--------|-7--------|----------|-7--------|

B |-----------------|-----------------|-----------------|----------|
F#|-----------------|-----------------|-----------------|----------|
D |-7-7-7-7-7-7-7-7-|-5-5-5-5-5-5-5-5-|-----------------|----------|
A |-7-7-7-7-7-7-7-7-|-5-5-5-5-5-5-5-5-|-3-3-3-3-3-3-3-3-|-7--------|
E |-5-5-5-5-5-5-5-5-|-3-3-3-3-3-3-3-3-|-3-3-3-3-3-3-3-3-|-7--------|
A |-----------------|-----------------|-3-3-3-3-3-3-3-3-|-7--------|

[Chorus]
B |---------------|-------------|---------------|----------------|
F#|---------------|-------------|---------------|----------------|
D |-7--x-x-7--x-x-|-7--5--5--5--|---------------|----------------|
A |-7--x-x-7--x-x-|-7--3--5--5--|-3--x-x-3--x-x-|-3--7-7-7-7-7-7-|
E |-5--x-x-5--x-x-|-5--3--3--3--|-3--x-x-3--x-x-|-3--7-7-7-7-7-7-|
A |---------------|-------------|-3--x-x-3--x-x-|-3--7-7-7-7-7-7-|

B |---------------|-------------|---------------|-----------|
F#|---------------|-------------|---------------|-----------|
D |-7--x-x-7--x-x-|-7--5--5--5--|---------------|-----------|
A |-7--x-x-7--x-x-|-7--3--5--5--|-3--x-x-3--x-x-|-3/7-------|
E |-5--x-x-5--x-x-|-5--3--3--3--|-3--x-x-3--x-x-|-3/7-------|
A |---------------|-------------|-3--x-x-3--x-x-|-3/7-------|

[Verse]
B |--------------|--------------|--------------|--------------|
F#|--------------|--------------|--------------|--------------|
D |--------------|--------------|--------------|--------------|
A |-8--8--8--8-8-|-5--5--5--5-5-|-0--0--0--0-0-|-0--0--0--7-7-|
E |-8--8--8--8-8-|-5--5--5--5-5-|-0--0--0--0-0-|-0--0--0--7-7-|
A |-8--8--8--8-8-|-5--5--5--5-5-|-0--0--0--0-0-|-0--0--0--7-7-| (x2)

B |----------|-----------|-----------|-------------|
F#|----------|-----------|-----------|-------------|
D |----------|-----------|-----------|-------------|
A |-----0--0-|-----------|-----5--5--|------3--3-2-|
E |----------|-----3--3--|-----------|-------------|
A |----------|-----------|-----------|-------------|

B |------------|-----------|-----------|------------|
F#|------------|-----------|-----------|------------|
D |------------|-----------|-----------|------------|
A |-0----0--0--|-----------|-----5--5--|------3--x--|
E |------------|-----3--3--|-----------|---------x--|
A |------------|-----------|-----------|---------x--|

B |----------|-----------|-----------|-------------|
F#|----------|-----------|-----------|-------------|
D |----------|-----------|-----------|-------------|
A |-----0--0-|-----------|-----5--5--|------3--3-2-|
E |----------|-----3--3--|-----------|-------------|
A |----------|-----------|-----------|-------------|

B |------------|-----------|-----------|--------------|
F#|------------|-----------|-----------|--------------|
D |------------|-----------|-----------|--------------|
A |-0----5--5--|-----5--5--|-----------|-7/----------|
E |------------|-----------|-----------|-7/----------|
A |------------|-----------|-----0--0--|-7/----------|

   PM
B |-------------|
F#|-------------|
D |-------------|
A |-8--8--8--8--|
E |-8--8--8--8--|
A |-8--8--8--8--|

B |--------------|--------------|--------------|--------------|
F#|--------------|--------------|--------------|--------------|
D |--------------|--------------|--------------|--------------|
A |-8--8--8--8-8-|-5--5--5--5-5-|-0--0--0--0-0-|-0--0--0--7-7-|
E |-8--8--8--8-8-|-5--5--5--5-5-|-0--0--0--0-0-|-0--0--0--7-7-|
A |-8--8--8--8-8-|-5--5--5--5-5-|-0--0--0--0-0-|-0--0--0--7-7-| (x2)

[Pre-Chorus]
B |----------|----------|----------|----------|
F#|----------|----------|----------|----------|
D |----------|----------|-7--------|----------|
A |-8--------|-7--------|----------|-7--------|
E |----------|----------|-5--------|----------|
A |-8--------|-7--------|----------|-7--------|

B |-----------------|-----------------|-----------------|----------|
F#|-----------------|-----------------|-----------------|----------|
D |-7-7-7-7-7-7-7-7-|-5-5-5-5-5-5-5-5-|-----------------|----------|
A |-7-7-7-7-7-7-7-7-|-5-5-5-5-5-5-5-5-|-3-3-3-3-3-3-3-3-|-7--------|
E |-5-5-5-5-5-5-5-5-|-3-3-3-3-3-3-3-3-|-3-3-3-3-3-3-3-3-|-7--------|
A |-----------------|-----------------|-3-3-3-3-3-3-3-3-|-7--------|

[Chorus]
B |---------------|-------------|---------------|----------------|
F#|---------------|-------------|---------------|----------------|
D |-7--x-x-7--x-x-|-7--5--5--5--|---------------|----------------|
A |-7--x-x-7--x-x-|-7--3--5--5--|-3--x-x-3--x-x-|-3--7-7-7-7-7-7-|
E |-5--x-x-5--x-x-|-5--3--3--3--|-3--x-x-3--x-x-|-3--7-7-7-7-7-7-|
A |---------------|-------------|-3--x-x-3--x-x-|-3--7-7-7-7-7-7-|

B |---------------|-------------|---------------|-----------|
F#|---------------|-------------|---------------|-----------|
D |-7--x-x-7--x-x-|-7--5--5--5--|---------------|-----------|
A |-7--x-x-7--x-x-|-7--3--5--5--|-3--x-x-3--x-x-|-3/7-------|
E |-5--x-x-5--x-x-|-5--3--3--3--|-3--x-x-3--x-x-|-3/7-------|
A |---------------|-------------|-3--x-x-3--x-x-|-3/7-------|

[Bridge]
B |------------|------------|------------|---------------|
F#|------------|------------|------------|---------------|
D |------------|------------|------------|---------------|
A |------------|------------|------------|---------------|
E |------------|------------|------------|---------------|
A |-0--0-----0-|-0--0-----0-|-0--0-----0-|-0--0--3-3-2-2-| (x2)

B |--------------|--------------|---------------|---------------|
F#|--------------|--------------|---------------|---------------|
D |--------------|--------------|---------------|---------------|
A |--------------|--------------|---------------|---------------|
E |--------------|--------------|---------------|---------------|
A |-0--0--7/---0-|-0--0--8/---0-|-0--0--10/---0-|-0--0--3-3-2-2-| (x2)

B |------------|------------|------------|---------------|
F#|------------|------------|------------|---------------|
D |------------|------------|------------|---------------|
A |------------|------------|------------|---------------|
E |------------|------------|------------|---------------|
A |-0--0-----0-|-0--0-----0-|-0--0-----0-|-0--0--3-3-2-2-| (x2)

[Chorus]
B |---------------|-------------|---------------|----------------|
F#|---------------|-------------|---------------|----------------|
D |-7--x-x-7--x-x-|-7--5--5--5--|---------------|----------------|
A |-7--x-x-7--x-x-|-7--3--5--5--|-3--x-x-3--x-x-|-3--7-7-7-7-7-7-|
E |-5--x-x-5--x-x-|-5--3--3--3--|-3--x-x-3--x-x-|-3--7-7-7-7-7-7-|
A |---------------|-------------|-3--x-x-3--x-x-|-3--7-7-7-7-7-7-|

B |---------------|-------------|---------------|-----------|
F#|---------------|-------------|---------------|-----------|
D |-7--x-x-7--x-x-|-7--5--5--5--|---------------|-----------|
A |-7--x-x-7--x-x-|-7--3--5--5--|-3--x-x-3--x-x-|-3/7-------|
E |-5--x-x-5--x-x-|-5--3--3--3--|-3--x-x-3--x-x-|-3/7-------|
A |---------------|-------------|-3--x-x-3--x-x-|-3/7-------|

(Clean)
B |--------------|--------------|--------------|--------------|
F#|--------------|--------------|--------------|--------------|
D |--------------|--------------|-------7----7-|-------5----5-|
A |-------8----8-|-------7----7-|----7-----7---|----5-----5---|
E |----8-----8---|----7-----7---|-5------------|-3------------|
A |-8------------|-7------------|--------------|--------------|

B |--------------|--------------|--------------|--------------|
F#|--------------|--------------|--------------|--------------|
D |--------------|--------------|-------7----7-|-------5----5-|
A |-------8----8-|-------7----7-|----7-----7---|----5-----5---|
E |----8-----8---|----7-----7---|-5------------|-3------------|
A |--------------|--------------|--------------|--------------|

B |-----------------|-----------------|-----------------|-----------------|
F#|-----------------|-----------------|-----------------|-----------------|
D |-7-7-7-7-7-7-7-7-|-7-7-5-5-5-5-5-5-|-----------------|-----------------|
A |-7-7-7-7-7-7-7-7-|-7-7-5-5-5-5-5-5-|-3-3-3-3-3-3-3-3-|-3-3-7-7-7-7-7-7-|
E |-5-5-5-5-5-5-5-5-|-5-5-3-3-3-3-3-3-|-3-3-3-3-3-3-3-3-|-3-3-7-7-7-7-7-7-|
A |-----------------|-----------------|-3-3-3-3-3-3-3-3-|-3-3-7-7-7-7-7-7-|

B |-----------------|-----------------|-----------------|-----------|
F#|-----------------|-----------------|-----------------|-----------|
D |-7-7-7-7-7-7-7-7-|-7-7-5-5-5-5-5-5-|-----------------|-----------|
A |-7-7-7-7-7-7-7-7-|-7-7-5-5-5-5-5-5-|-3-3-3-3-3-3-3-3-|-3/7-------|
E |-5-5-5-5-5-5-5-5-|-5-5-3-3-3-3-3-3-|-3-3-3-3-3-3-3-3-|-3/7-------|
A |-----------------|-----------------|-3-3-3-3-3-3-3-3-|-3/7-------|

[Outro/Verse]
B |-----------------|-----------------|---------------------|-----------------|
F#|-----------------|-----------------|---------------------|-----------------|
D |-----------------|-----------------|---------------------|-----------------|
A |---------8-8-8-8-|---------5-5-5-5-|---------12-12-12-12-|-----------------|
E |-----------------|-----------------|---------------------|-----------------|
A |-8-8-8-8---------|-5-5-5-5---------|-0-0-0-0-------------|-0-0-0-0-7-7-7-7-| (x4)


************************************

| \   Slide down
| PM  Palm mute
| x   Dead note
| /   Slide up

************************************

            
            
Suggest correction
Creating personal tab
Creating personal tab
You can edit any tab online and save it as your Personal.

You can edit, replace or remove any tab part or add personal notes – all changes will be seen only by you.

Personal tabs can be accessed anytime from any device, even offline.
Learn more »
Give kudos to tab author, rate the tab!
1 2 3 4 5
comments
print report bad tab
guest
You may want to rate the tab now too:
select rating
Wanna post a correction for this tab? Suggest correction