Oops, an error
Loading. Please wait.

From Atlantis - Changes Tab

1,000 views 3 this week
no commentswrite comment
1 2 3 4 5
please rate
add to favorites
launch autoscroll
font size
0
reset
how to read this tab
guitar tuner
Autoscroll
slow
fast
+/-
esc
set tempo
stop
Help us to improve Ultimate-Guitar.com Take our survey!
×
Author
Difficulty
Tuning
intermediate
B F# B E G# C#
there were no tabs for this song so i did my best to tab it. 

From Atlantis
"Changes"

Drop B tuning

. = palm muted
* = harmonic
^ = bend
/ = slide up
\ = slide down

INTRO

C#|-------------------------|
G#|-------------------------|
E |-------------------------|
b |-------------------0~----|
F#|--0000000000000000-0~----|
B |--1111111111111111-0~----|
                                  
                                 the first time    the second time
C#|------------------------|      |----------|   |------------------|
G#|------------------------|      |----------|   |------------------|
E |------------------------| x2   |----------|   |--------------*5--|
b |------------------------|      |----------|   |--*5--*3----------|
F#|--000000-00-00-0000000--|      |--000000--|   |----------*5------|
B |--111111-11-11-1111111--|      |--111111--|   |------------------|
     ...... .. .. .......            ......

                                 the first time   the second time
C#|------------------------|      |----------|   |----------------|
G#|------------------------|      |----------|   |----------------|
E |------------------------| x2   |----------|   |----------------|
b |------------------------|      |----------|   |----------------|
F#|--000000-00-00-0000000--|      |--000000--|   |----------------|
B |--111111-11-11-1111111--|      |--111111--|   |----^1---^1-----|
     ...... .. .. .......            ......

C#|-------------------------------|     |--------------------------------|
G#|-------------------------------|     |--------------------------------|
E |-------------------------------| x2  |--------------------------------|
b |-------------------------------|     |-----------------------------0~-|
F#|--000000-00-00-0000000-000000--|     |-0--000-000000-00-000000-00--0~-|
B |--111111-11-11-1111111-111111--|     |-0--000-000000-00-000000-00--0~-|
     ...... .. .. ....... ......          .  ... ...... .. ...... ..

VERSE I

C#|----------------------------------|      
G#|----------------------------------|      
E |----------------------------------| x8   
b |----------------------------------|     
F#|--00-000-000-000-888-888-333-333--|      
B |--00-000-000-000-888-888-333-333--|
     .. ... ... ... ... ... ... ...

guitar 2 comes in on the fourth repeat with:

C#|-----------------------------------------------------------------|
G#|-----------------------------------------------------------------|
E |-----------------------------------------------------------------|
b |--333333333333/555/88\777777\2222--333333333333/555/88\777777\2~-|
F#|-----------------------------------------------------------------|
B |-----------------------------------------------------------------|

CHORUS

C#|-------|--------------------------------------|
G#|-------|--------------------------------------|
E |-------|--------------------------------------| x2
b |-------|--------------------------------------|
F#|-00-00-|--000-00-0000-00000-0000-00-000-0000--|
B |-00-00-|--000-00-0000-00000-0000-00-000-0000--|
    .. ..    ... .. .... ..... .... .. ... ....

VERSE II

C#|--------------------------------------------------|      
G#|---------------------------------------------6----|      
E |--------------------------------------------------| x2   
b |--------------------------------------------------|     
F#|--00-00-^5-00-000000-00000-00-^5-00-000000-5------|      
B |--00-00----00-000000-00000-00----00-000000--------|
     .. ..    .. ...... .....       .. ...... 

VERSE I 

C#|----------------------------------|      
G#|----------------------------------|      
E |----------------------------------| x8   
b |----------------------------------|     
F#|--00-000-000-000-888-888-333-333--|      
B |--00-000-000-000-888-888-333-333--|
     .. ... ... ... ... ... ... ...

guitar 2 comes in on the fourth repeat with:

C#|-----------------------------------------------------------------|
G#|-----------------------------------------------------------------|
E |-----------------------------------------------------------------|
b |--333333333333/555/88\777777\2222--333333333333/555/88\777777\2~-|
F#|-----------------------------------------------------------------|
B |-----------------------------------------------------------------|

BRIDGE
               these are 1's not 11's
C#|----------------------------------------------------------|-------|      
G#|-----------------------------------------------------4----|-------|      
E |-----------------------------------------------------3----|-------| x2   
b |----------------------------------------------------------|-------|     
F#|--5-------3-----1111-11-1111--5-------3-----1111-11---11--|-------|      
B |---6-0-3-5-5-3--1111-11-1111---6-0-3-5-5-3--1111-11---11--|--12\--|
                   .... .. ....                .... ..   ..

CHORUS

C#|-------|--------------------------------------|
G#|-------|--------------------------------------|
E |-------|--------------------------------------| x2
b |-------|--------------------------------------|
F#|-00-00-|--000-00-0000-00000-0000-00-000-0000--|
B |-00-00-|--000-00-0000-00000-0000-00-000-0000--|
    .. ..    ... .. .... ..... .... .. ... ....

VERSE II

C#|-------------------------------------------------|      
G#|-------------------------------------------------|      
E |-------------------------------------------------| x2   
b |-------------------------------------------------|     
F#|--00-00-^5-00-000000-00000-00-^5-00-000000-5-----|      
B |--00-00----00-000000-00000-00----00-000000---*3--|
     .. ..    .. ...... .....       .. ......    ^artificial harmonic

BREAKDOWN!!

C#|------------------------------------|
G#|------------------------------------|
E |------------------------------------|
b |-0~---------------------------------|
F#|-0~--00-00-0000-00-00000-00-000-00--|
B |-0~--00-00-0000-00-00000-00-000-00--|

C#|-------------------------------------------|
G#|-------------------------------------------|
E |-------------------------------------------| x2
b |-------------------------------------------|
F#|--00-00-0000-00-00000-00000-0000-00-00-000-|
B |--00-00-0000-00-00000-00000-0000-00-00-000-|
     .. .. .... .. ..... ..... .... .. .. ...

guitar 2 backing guitar 1 on second time with:

C#|------------------------------------|
G#|------------------------------------|
E |------------------------------------|
b |------------------------------------|
F#|--5--5---5--5-5--5--5---5--5555555--|
B |---00-000-00-0-00-00-000-00-000000--|

C#|---------------------------------------------|
G#|---------------------------------------------|
E |---------------------------------------------|
b |--11-11-1111-11-11111-11111-1111-11-11-1111--|
F#|--11-11-1111-11-11111-11111-1111-11-11-1111--|
B |--11-11-1111-11-11111-11111-1111-11-11-1111--|
     .. .. .... .. ..... ..... .... .. .. ....

C#|--------------------------------------------------------|
G#|--------------------------------------------------------|
E |--------------------------------------------------------| 
b |--------------------------------------------------------|
F#|--00-00-0000-00-00000-00000-0000-00-00-00000--0-0-00-0--|
B |--00-00-0000-00-00000-00000-0000-00-00-00000--0-0-00-0--|
     .. .. .... .. ..... ..... .... .. .. .....  


awesome song - i hope this helped you guys out
Suggest correction
What's this?
You can suggest a correction to this tab. Community and Mods will review your correction and vote to approve or reject it.
comments
We did not receive enough feedback on this tab! Please rate:
print report bad tab
1 2 3 4 5
guest
You may want to rate the tab now too:
select rating
Please do not post tabs as comments. Select "correction" instead!