Oops, an error
Loading. Please wait.

From Her Eyes - The Manhattan Project Tab

136 views 1 this week
no commentswrite comment
1 2 3 4 5
please rate
add to favorites
launch autoscroll
font size
0
reset
how to read this tab
guitar tuner
Tab Pro tools
  • play this tab
  • loop segment
  • change instrument
  • show fretboard
  • metronome
×
Best way to learn
"From Her Eyes - The Manhattan Project"
Autoscroll
slow
fast
+/-
esc
set tempo
stop
Contributor
Difficulty
Tuning
intermediate
C G C F A D
From Her Eyes
The Manhattan Project
Tuning Drop C [C-G-C-F-A-D, lowest to highest]




Intro (tapping)

Part A

-13p5--------------13p5------13/15p5-13p5--|
------10p3-10/13p3------10p3---------------|
-------------------------------------------|
-------------------------------------------|
-------------------------------------------|
-------------------------------------------|

-13p5--------------13p5----------------------|
------10p3-10/13p3------10p3-10/13p3---------|
-------------------------------------12p5----|
---------------------------------------------|
---------------------------------------------|
---------------------------------------------|(x2)

Part B

-10p3-8p3-8/10p3-10p3-8p3-10/13p3-12p3-------|
---------------------------------------------|
---------------------------------------------|
---------------------------------------------|
---------------------------------------------|
---------------------------------------------|

-10p3-8p3-8/10p3-10p3-8p3--------------------|
--------------------------8/10p1-------------|
---------------------------------10p3--------|
---------------------------------------------|
---------------------------------------------|
---------------------------------------------|

-13p5--------------13p5------13/15p5-13p5--|
------10p3-10/13p3------10p3---------------|
-------------------------------------------|
-------------------------------------------|
-------------------------------------------|
-------------------------------------------|

-13p5--------------13p5----------------------|
------10p3-10/13p3------10p3-10/13p3---------|
-------------------------------------12p5----|
---------------------------------------------|
---------------------------------------------|
---------------------------------------------| (x2)
Verse

---------------------------------------------------------------|
---------------------------------------------------------------|
---------------------------------------------------------------|
------------------------------1-1--1--1-1-----------5----------|
-8p0-------8p0------8p0-------5-5--5--5-5-------7p0---7-7-7----|
-----0--0------0--0-----0-0-----------------7h8----------------| (x4)


Pre Chorus

---------------------------------------------------------------|
---------------------------------------------------------------|
---------------------------------------------------------------|
--8---5---12---10--7---8---5---12---10--7----------------------|
--8---5---12---10--7---8---5---12---10--7----------------------|
--8---5---12---10--7---8---5---12---10--7----------------------|


Chorus (Rhythm same chords as pre-chorus)

-------------------------------------------------------------------|
-------------------------------------------------------------------|
-------------7---------------7-----7--7/10\7-----------------------|
--8p0--5/8p0---8p0-8p0-5/8p0---8p0---8-------8\7\5/8p0-7p0-5p0-7p0-|
-------------------------------------------------------------------|
-------------------------------------------------------------------| (x4)


-------------------|
-------------------|
-------------------|
-8-----5-----0~----|
-8-----5-----0~----|
-8-----5-----0~----|


Breakdown (for phaser effect add phaser or mess around with harmonics on the 5th and 7th 
fret, G and C strings.

-------------------------------------------------|
-------------------------------------------------|
-------------------------------------------------|
---------0---------------------------------------|
---------0---------------------------------------|
-0 (x64)-0-[theres blood on my...]---------------|

-------------------------------------------------|
------------------4--4-4---4--4-4----------------|
------------------7--7-7---7--7-7----------------|
-------------------------------------------------|
-------------------------------------------------|
-00-00-00-00-0000-----------------(x4)-----------|

-------------------------------------------------|
-------------------------------------------------|
-------------------------------------------------|
-------------------------------------------0-----|
-0-0--0-0-----000000--0-0--0-0-----000000--0-----|
-1-1--1-1-----111111--1-1--1-1-----111111--0-----|


Bridge (* don't pick this note, just pull off)

--------5-----------5----------------------------|
----3-----3-----3-----3--------------------------|
--3---3-----3-5---5-----5*p0---------------------|
-------------------------------------------------|
-------------------------------------------------|
------------------------------0~-----------------|(x2)

-------------------------------------------------|
-------------------------------------------------|
-------9-----------9----------4-----------4------|
---7-----7----7------7\2---2----2----2------2/7--|
-8---8-----88---88-------3---3----33---33--------|
-------------------------------------------------|

-------------------------------------------------|
-----------10-----10--------------------5~-------|
-------9-----9-------9-----------4------4~-------|
---7-----7-----7-------7\2---2-----2----2~-------|
-8---8-----8-----8---------3---3-----3--3~-------|
-------------------------------------------------|

Pre Chorus 2
---------------------------------------------------------------|
---------------------------------------------------------------|
---------------------------------------------------------------|
--8---5---12---10--7---8---5---12---10--7----------------------|
--8---5---12---10--7---8---5---12---10--7----------------------|
--8---5---12---10--7---8---5---12---10--7----------------------| (strum chords)

Chorus 2 (Rhythm same chords as pre-chorus)

-------------------------------------------------------------------|
-------------------------------------------------------------------|
-------------7---------------7-----7--7/10\7-----------------------|
--8p0--5/8p0---8p0-8p0-5/8p0---8p0---8-------8\7\5/8p0-7p0-5p0-7p0-|
-------------------------------------------------------------------|
-------------------------------------------------------------------| (x4)


------------|
------------|
------------|
-8-----5----|
-8-----5----|
-8-----5----|


Outro

---------------------------------------------------------------|
---------------------------------------------------------------|
---------------------------------------------------------------|
-1--1--1-1--1--1--1--1-1----------------------------0----------|
-5--5--5-5--5--5--5--5-5----------------------------0----------|
---------------------------0--0--0-0--0--0--0--0-0--0----------|
comments
We did not receive enough feedback on this tab! Please rate:
print report bad tab
1 2 3 4 5
I want to post or [tab]
guest
You may want to rate the tab now too:
select rating
Please do not post tabs as comments. Select "correction" instead!