Oops, an error
Loading. Please wait.

Funktastic - Funktastic Tab

7 views 1 this week
no commentswrite comment
1 2 3 4 5
3 more votes to show rating
add to favorites
launch autoscroll
font size
0
reset
how to read this tab
guitar tuner
Autoscroll
slow
fast
+/-
esc
set tempo
stop
Help us to improve Ultimate-Guitar.com Take our survey!
×
Author
Difficulty
intermediate
[Intro]
(4 măsuri)

Chitara I (Paul)

e|-----------------------------------|
B|-----------------------------------|
G|-----------------------------------|
D|-------5-----5h7-------5-----5h7---|
A|-0-0-0---0-0-----0-0-0---0-0-------|
E|-----------------------------------|

e|-----------------------------------|
B|-----------------------------------|
G|-----------------------------------|
D|-------5-----5h7-------5-----5h7---|
A|-5-5-5---5-5-----------------------|
E|-----------------8-8-8---8-8-------|  (x4)

Chitara II (Dragoș)

Prima măsura nu se aude chitara a II-a.

e|------------------------------------|
B|------------------------------------|
G|------------------------------------|
D|----------------------------5-------|
A|---------------5--5---3--3----------|
E|-5--5---5--5------------------------|

  (Aici încep tobele)
e|------------------------------------|
B|------------------------------------|
G|---------------7--7---5--5----------|
D|-7--7---7--7----------------7-5-7-5-|
A|------------------------------------|
E|------------------------------------|

e|-----------------------------------|
B|-----------------------------------|
G|-----------------------------------|
D|-------5h7---5h7-------5h7---5h7---|
A|-0-0-0-----0-----0-0-0-----0-------|
E|-----------------------------------|

e|-----------------------------------|
B|-----------------------------------|
G|-----------------------------------|
D|-------5h7---5h7-------5h7---5h7---|
A|-5-5-5-----5-----------------------|
E|-----------------8-8-8-----8-------|

Refren: (2 măsuri) (Aici intră Hobi)

Chitara I (Paul)
------------
Power Chords

A5 (x2) -> C5 -> D5
------------

Chitara II (Dragoș)

e|-----------------------------------|
B|-----------------------------------|
G|-----------------------------------|
D|-------5h7---5h7-------5h7---5h7---|
A|-0-0-0-----0-----0-0-0-----0-------|
E|-----------------------------------|

e|-----------------------------------|
B|-----------------------------------|
G|-----------------------------------|
D|-------5h7---5h7-------5h7---5h7---|
A|-5-5-5-----5-----------------------|
E|-----------------8-8-8-----8-------|

 Strofã: (8 măsuri)

Chitara II
------------
Power Chords

A5 (x2) -> C5 -> D5 -rapid-> C5

A5 (x2) -> C5 -> D5
------------

Chitara I

e|-----------------------------------| 
B|-----------------------------------| 
G|-----5-----------------------------|
D|-5h7---5-5h7-7-7-7-7-5-5-----------|
A|-----------------------------------|
E|-----------------------------------| 

e|-----------------------------------|
B|-----------------------------------|
G|-----5--------7-7-7-7-5------------|
D|-5h7---5-5h7-----------------------|
A|-----------------------------------|
E|-----------------------------------|

- Refren

- Strofă

- Refren

 Outro: (4 măsuri)

Chitara II tace în primele 2 măsuri.

Chitara I (Paul)

e|-----------------------------------|
B|-----------------------------------|
G|-----5----------9-9-7~------5h7----|
D|-5h7---5-5h7~---7-7-5~--5h7--------|
A|-----------------------------------|
E|-----------------------------------|

Ultimele 2 măsuri

Chitara I (Paul)

------------
Power Chords

A5 (x2) -> C5 -> D5
------------

Chitara II (Dragoș)

Alternează A ; B1 și B2 .

I --> A -> B1 -> A -> B1.

II -> A -> B2 -> A -> B2.

  (A)
e|-----------------------------------|
B|-----------------------------------|
G|-----5-7b9b7-5---------------------|
D|-5-7-----------7-------------------|
A|-----------------------------------|
E|-----------------------------------|
  (B1)
e|-----------------------------------|
B|-----8-----------------------------|
G|-7/9---9/7-5-7-5-------------------|
D|-----------------7-----------------|
A|-----------------------------------|
E|-----------------------------------|
  (B2)
e|-----------------------------------|
B|-----8-----------------------------|
G|-7/9---9/7-5--5--------------------|
D|------------7---7~~~~~~~~~~~~~~~~~~|
A|-----------------------------------|
E|-----------------------------------|  

END


************************************

Legendă:

h - hammer on
b - bend
/ - slide
~ - maintain note  

************************************
Suggest correction
Give kudos to tab author, rate the tab!
1 2 3 4 5
comments
print report bad tab
guest
You may want to rate the tab now too:
select rating
Wanna post a correction for this tab? Suggest correction